Veil Of Maya - Sever The Voices Chords & Tabs

 

Sever The Voices Chords & Tabs

Veil Of Maya Chords & Tabs

Version: 1 Type: Tab

Sever The Voices Tab

   
Veil of Maya Motha Lickas


Drop B [ B F# B E G# C# ]


-----------------------------------------------------------------------------|
-----------------------------------------------------------------------------|
-----------------------------------------------------------------------------|
-----------------0h7------------------3-----------------0h7------------------|
--000--8---0h3h7------000--8----0h3h7----78---7---0h3h7--------4h5h7---5h7h8-|
--000----0------------000-----0-------------0---0-----------55-------77------|




-----------------------------------------------------------------------------|
-----------------------------------------------------------------------------|
-----------------------------------------------------------------------------|
-----------------0h7------------------3-----------------0h7------------------|
--000--8---0h3h7------000--8----0h3h7----78---7---0h3h7--------4h5h7---5h7h8-|
--000----0------------000-----0-------------0---0-----------55-------77------|


----------------------------------------------------------------------------|
----------------------------------------------------------------------------|
----------------------------------------------------------------------------|
----------------------------------------------------------------------------|
-----12p10p8---10p8p7-------------------------------------------------------|
--88---------88-------------------------------------------------------------|



-----------------------------------------------------------------------------|
-----------------------------------------------------------------------------|
-----------------------------------------------------------------------------|
-----------------0h7------------------3-----------------0h7------------------|
--000--8---0h3h7------000--8----0h3h7----78---7---0h3h7--------4h5h7---5h7h8-|
--000----0------------000-----0-------------0---0-----------55-------77------|

[ Tab from: http://www.guitartabs.cc/tabs/v/veil_of_maya/sever_the_voices_tab.html ]
-----------------------------------------------------------------------------|
-----------------------------------------------------------------------------|
-----------------------------------------------------------------------------|
-----------------------------------------------------------------------------|
-----12p10p8----10p8p7-----4h5h7----5h7h8--555444888777----------------------|
--88---------88---------55-------77-----------------------------------yea----|


------------------------------------------------------------------------------|
------------------------------------------------------------------------------|
----6--9---6--9---6--9--10---6--9--10-----------------------------------------|
----x--x---x--x---x--x---x---x--x--x------------------------------------------|
----4--7---4--7---4--7---8---4--7--8---4---7----4---7----4--7--8----4---7---8-|
-----------------------------------------0---00---0---00---0--0--00---0---0---|




-----------------------------------------------------------------------------|
-----------------------------------------------------------------------------|
-----------------------------------------------------------------------------|
-----------------------------------------------------------------------------|
-----4---7-----4---7----4---7---8---11----12---11----8----7---4h5p4h5p4------|
--00---0----00---0---00---0---0---0-----0----0-----0---0----0----------------|


----------------------------------------------------------------------------|
----------------------------------------------------------------------------|
----------------------------------------------------------------------------|
----------------------------------------------------------------------------|
--7h8p7h8p7-----------------------------------------------------------------|
----------------------------------------------------------------------------|

Yea Veil of Maya is amazing its very difficult to figure out their shit...they stomp 
serious ass....thats all i got for this one just figured out the riff after the intro 
today.............not really sure bout all of it tho soo...balls


                      Fertile Saggy Orangutan orface