Vehemence - By Your Bedside Chords & Tabs

 

By Your Bedside Chords & Tabs

Vehemence Chords & Tabs

Version: 1 Type: Tab 0 ratings
1 star 2 stars 3 stars 4 stars 5 stars
comments

By Your Bedside Tab

Vehemence By Your Bedside
b----    -------------------------------------------------------------------------------------------|
g----    -------------------------------------------------------------------------------------------|
d----    -------------------------------------------------------------------------------------------|
a----    ----------------------------------------------- -(0-0-3-3-2-2-0-0-3232)x3 0-0-6-6-7-7-8-8--|
e----    -(0-0-2-2-1-1-0-0-2121)x3 ----------------(0-0-3-3-2-2-0-0-3232)x3-0-0-6-6-7-7-8-8---------|
b----    -(0-0-2-2-1-1-0-0-2121)x3 0 0-4-4-5-5------------------------------------------------------|
                               ^play fast roll fingers
[ Tab from: http://www.guitartabs.cc/tabs/v/vehemence/by_your_bedside_tab.html ]
chours
b----------------------------------------------|
g--------3-2-3-7-8-7-8-5-6-5-3-5-6-5-8-9-------|
d----3-2----=----------------------------------|
a----------------------------------------------|
e----------------------------------------------|
b----------------------------------------------|
tremo pick the chours
repeat this a coulple of times then comes this part
a------------------3---3-3-3--3--3------------|
e-5-6-5-4----------3---3-3-3--3--3------------|
b-3-4-3-2----------2p0--------2p2p------------|
by your bedside
repeat this part a couple of times and on the 2nd and 3rd way into that part just 
the picking of the 2p's that is pretty much the whole song or at least every part i could make 
of it if you have any
questions e mail me at sparda651@aol.com or im me at sparda651 use the tab while listening to the song
it will help out alot ill have more vehemence later on
Comments