Vector - Going To Hell Chords & Tabs

 

Going To Hell Chords & Tabs

Vector Chords & Tabs

Version: 1 Type: Tab 0 ratings
1 star 2 stars 3 stars 4 stars 5 stars
comments

Going To Hell Tab

#----------------------------------PLEASE NOTE--------------------------------#
#This file is the author's own work and represents their interpretation of the#
#song. You may only use this file for private study, scholarship, or research.#
#-----------------------------------------------------------------------------#
#-- File created with Instab - http://www.pconline.com/~smcarey/instab.html --#
#-----------------------------------------------------------------------------#

Author/Artist: Vector
Title: Going To Hell(Satan's Work)
Album: Mouldering Bodies
Transcribed by: Martin Rojek
Email: MartinRojek@web.de

Lyrics:

(Verse)
EVERY DAY I SEE THE EVIL OF THE WORLD 
EVERY NIGHT I SEE WHEN OTHER PEOPLE DIE 
EVERY DAY I HEAR SCREAMING OUT MY GIRL 
EVERY NIGHT I SEE WHEN OTHER PEOPLE DIE 

(Pre-Chorus)
NOW FIGHT AGAINST WHAT SATANíS WORK HAS DONE 
FIGHT AGAINST AND MAKE HIM FEELING DOWN 
FEAR STRUCK ME THINKING OF MY SOUL 
FEEL THE PAIN THAT AINíT COOL 

(Chorus)
HELL, IíM GOING TO HELL AND IT LIVES IN MY LIFE 
WHEN THE FUTURE IS COMING INTO THE LAND 
HELL, IíM GOING TO HELL AND IT LIVES IN MY SOUL 
NOW I GONNA LOSING MY CONTROL 

(Verse)
TAKE MY HAND, IíLL LEAD YOU THROUGH MY HEAD 
YOU SHOULD SEE THE THINGS I DREAM IN BED 
IíLL RAISE FROM HELL, MAKE SATANíS WORK UNDONE 
I CLENCH MY THINGS TO RUN AND RUN 

(Pre-Chorus)
YOU TOOK MY SOUL, YOUíRE THE DEVIL OF MY SIN 
LOCK ME NOW IN A COFFIN 
TO LAY THERE FOR YEARS LIVING WITH MY TEARS 
BU IíLL NEVER CRY; NOT BEFORE IíLL DIE 

(Chorus)
HELL, IíM GOING TO HELL AND IT LIVES IN MY LIFE 
WHEN THE FUTURE IS COMMING INTO THE LAND 
HELL, IíM GOING TO HELL AND IT LIVES IN THE LAND 
WHEN THE FUTURE IS COMMING INTO MY LIFE 
( Lyrics by Seabstian Froehlich )

                       Vector - Going to hell(Satan's Work)


-------0----0----1------|-------0--------0---------0---------0|---------------
-----0------1----1------|-----0--------0---------0---------0--|---------------
---0--------0----2------|---1--------2---------3---------4----|---------------
---------------3--------|-------------------------------------|---------------
----------3-------------|----------3--------4---------5-------|---------------
-0----------------------|-0-----------------------------------|---------------
 Intro Play 4x                       Play 2x                      (clean)     
[ Tab from: http://www.guitartabs.cc/tabs/v/vector/going_to_hell_tab.html ]
-------------------|-------------------|--------------------------------------
-------------------|-------------------|--------------------------------------
-------------------|-------------------|--------------------------------------
-2-----3---4-----6-|-4-----5---6-----7-|-2------------------------------------
-2-----3---4-----6-|-4-----5---6-----7-|-2------------------------------------
-0-x-x-1---2-x-x-4-|-2-x-x-3---4-x-x-5-|-0------------------------------------
 (Distortion)  2x           2x                                                

----------------------------------------------------------|-------------------
----------------------------------------------------------|-------------------
----------------------------------------------------------|-------------------
-----9-----9-----9-----9-----9--------9----9-----5-x-7-x-7|-------------------
-----7-----7-----7-----7-----7--------7----7-----3-x-5-x-5|-------------------
-0-0---0-0---0-0---0-0---0-0------0-0---0-0--0-0----------|-------------------
 1 Guitar                        Play 2x                                      

------------------------------------------------------------|-----------------
------------------------------------------------------------|-----------------
------------------------------------------------------------|-----------------
-----5-----5-----5-----5-----5--------5-----5-----2-x-4-x-4-|-----------------
-----7-----7-----7-----7-----7--------7-----7-----3-x-5-x-5-|-----------------
-0-0---0-0---0-0---0-0---0-0------0-0---0-0---0-0-----------|-----------------
 (2 Guitar)                     after 2nd time                                     

--------------------------------------------|---------------------------------
--------------------------------------------|---------------------------------
--------------------------------------------|---------------------------------
-2---2------9------3------2---2------9-5-8-3|---------------------------------
-2-x-2--x-x-9--x-x-3--x-x-2-x-2--x-x-9-5-8-3|---------------------------------
-0-x-0--x-x-7--x-x-1--x-x-0-x-0--x-x-7-3-6-1|---------------------------------
 Verse          Play 4x                                                       

----------------------------|-------------------------------------------------
----------------------------|-------------------------------------------------
----------------------------|-------------------------------------------------
-7-x-7---------5-x-5--------|-------------------------------------------------
-7-x-7---------5-x-5--------|-----7-----8-----9-----10^-----------------------
-5-x-5--5-5-5--3-x-3--3-3-3-|-0-0---0-0---0-0---0-0---------------------------
 Pre-Chorus    play 4x                                                        

------------------|-----------------------------------------------------------
------------------|-----------------------------------------------------------
------------------|-----------------------------------------------------------
-2-x-3--x-x-4-x-5-|-4-x-5--x-x-6-x-7------------------------------------------
-2-x-3--x-x-4-x-5-|-4-x-5--x-x-6-x-7------------------------------------------
-0-x-1--x-x-2-x-3-|-2-x-3--x-x-4-x-5------------------------------------------
 Chorus     2x             2x                                                 

Comments