Vaughan Stevie Ray - Wham Chords & Tabs

 

Wham Chords & Tabs

Vaughan Stevie Ray Chords & Tabs

Version: 1 Type: Tab 0 ratings
1 star 2 stars 3 stars 4 stars 5 stars
comments

Wham Tab

   
     Stevie Ray Vaughan
Wham
 
Gtr I (Eb Ab Db Gb Bb Eb) - 'Stevie Ray Vaughan - Gtr.'

 Intro & Interlude
  Q=208
  $
  E                  F
 4/4
  Gtr I
|-0----0-(0)-------|-------1-(1)-------|
|-0----0-(0)-0-----|-------1-(1)-------|
|-1--1-1-(1)-1-1---|-2-2-2-------2-----|
|-2--2-2-(2)-2-2-2-|-3-3-3-------3-3---|
|-2--2---------2-2-|-3-------------3---|
|-0--0---------0-0-|-1-------------1-0-|


  F#                  G
|-------2-(2)-------|---------3-(3)-------|
|-------2-(2)-2-----|---------3-(3)-------|
|---3-3-3-(3)-3-3---|---4-(4)-4-(4)-4-4---|
|-4---4---------4---|-5-5-(5)-5-(5)-5-5---|
|-4---4---------4---|-5---------------5---|
|-2---------------0-|-3-----------------0-|


  G#                 A
|------4-(4)-------|-------5-(5)---------|
|-4----4-(4)-4-----|-------5-(5)---------|
|-5----------5-5---|---6-6-------6-(6)---|
|-6--6-------6-6---|---7-7-------7-(7)---|
|-6--6---------6---|-7---7---------------|
|-4--4-----------5-|-5-----------------0-|


  Bb                    B           N.C.
|-------6-(6)---------|-------7-(7)--------||
|-------6-(6)-6-(6)---|-------7-(7)--------||
|---7---------7-(7)---|---8---------8s4-3--||
|---8-8-------8-(8)---|---9-9--------------||
|-8-------------------|-9------------------||
|-6-----------------0-|-7------------------||


 Theme
          E7     EmF#Em     F#m Em F#Em  E7            EmF#Em     A E    A E5
|-------3s4--(4)-0-2---|-0--2---0--2---|-----3s4-4-(4)---2---|-0------0----0--|
|-------2s3--(3)-0-2-0-|-0--2---0--2-0-|-----2s3-3-(3)-0-2-0-|-0--2---0--2-0--|
|-(3)---3s4--(4)-0-2-0-|-0--2---0--2-0-|-----3s4-4-(4)-0-2-0-|-1--2-1-1--2----|
|----------------------|------2--------|---------------------|------2---------|
|----------------------|---------------|---------------------|----------------|
|--0--0----------------|---------------|-0-0-----------------|----------------|


  A7          A9A6A9     A6E    A6A9  E7            EmF#E      A E    A
|-------3-(3)-0-2---|-0--2---0--2-0-|-----3s4-4-(4)---2---|-0------0------|
|-----2-2-(2)-0-2-0-|-0--2---0--2-0-|-----2s3-3-(3)-0-2---|-0--2---0--2---|
|-----2-2-(2)-0-2-0-|-0--2-1-1--2-0-|-----3s4-4-(4)-0-2-1-|-1--2-1-1--2---|
|-----2-------------|------2--------|-------------------2-|------2--------|
|-0-0---------------|---------------|---------------------|---------------|
|-------------------|---------------|-0-0-----------------|-------------0-|


  B5                      A5
|-----------------------|--------------5-5---|
|---7-(7)--(7)----7\----|---5-(5)--(5)-5-5-0-|
|-4------------4-(4)\-0-|-2-2-(2)--(2)---2-0-|
|-4---------------------|-2------------------|
|-----------------------|--------------------|
|-----------------------|--------------------|


               To Coda
  E7            EmF#E       A E    A E5
|-----3s4-4-(4)---2----|-0------0----0--||
|-----2s3-3-(3)-0-2----|-0--2---0--2-0--||
|-----3s4-4-(4)-0-2-1--|-1--2-1-1--2----||
|-------------------2--|------2---------||
|----------------------|----------------||
|-0-0------------------|----------------||


  E7            EmF#m   EmN.C.
|-----3s4-4-(4)---2---|-0-----0-------0-------|
|-----2s3-3-(3)---2-0-|-0---0---3b3.5---------|
|-----3s4-4-(4)-0-2-0-|-0-2-------------2p0---|
|---------------0-----|---------------------2-|
|---------------------|-----------------------|
|-0-0-----------------|-----------------------|


  E7            EmF#E   EmN.C.
|-----3s4-4-(4)---2---|-0-----0-------0----------|
|-----2s3-3-(3)-0-2---|-0-------3b3.5------------|
|-----3s4-4-(4)-0-2-1-|-0-2s4-----------2p0------|
|-------------------2-|---------------------2p0--|
|---------------------|--------------------------|
|-0-0-----------------|--------------------------|


  A7          A9A6A9  EmN.C.
|-------3-(3)-0-2---|-0-----0-------0---------|
|-----2-2-(2)-0-2-0-|-0-------3b3.5-----------|
|-----2-2-(2)-0-2-0-|-0-2s4-----------2p0-----|
|-----2-------------|---------------------2p0-|
|-0-0---------------|-------------------------|
|-------------------|-------------------------|


  E7              F#E      A E    A
|-----3s4-4-(4)---2---|-0------0------|
|-0---2s3-3-(3)-0-2---|-0--2---0--2---|
|-1---3s4-4-(4)-0-2-1-|-1--2-1-1--2---|
|-------------------2-|------2--------|
|---------------------|---------------|
|---0-----------------|-------------0-|


  B B9         A5                A9  E7            EmF#E      A E    A Em
|---2-(2)--------|---5---(5)-5-0---|-----3s4-4-(4)---2---|-0------0----0-||
|-4-2-(2)----2---|---5---(5)-5---0-|-----2s3-3-(3)-0-2---|-0--2---0--2-0-||
|-4-2-(2)----2---|-2-2---(2)-----0-|-----3s4-4-(4)-0-2-1-|-1--2-1-1--2-0-||
|---1-(1)------2-|-2---------------|-------------------2-|------2--------||
|--------------0-|-----------------|---------------------|---------------||
|----------------|-----------------|-0-0-----------------|---------------||


  N.C.
    ~                                     ~
|-------------------|-----------------|-------------------|--------------------|
|-3s5---3-----------|-----------------|-3s5---3-----------|--------------------|
|---------4s2--0h1--|-----1---2-1-----|---------4s2--0h1--|-----------2-1------|
|-------------------|-2-2---2-----2---|-------------------|-2-2-0h5-2-----2-0--|
|-------------------|-----------------|-------------------|--------------------|
|-------------------|---------------0-|-------------------|--------------------|


                       E  F#Em
         ~
|--------------|-------0--2-0-(0)-0-|
|--------------|-------0--2-0-(0)-0-|
|--------------|-------1--2-0-(0)---|
|--------2-----|--------------------|
|------2-------|--------------------|
|-0--3------0--|-(0)-0--------------|


  N.C.
           ~
|-(0)-------------|-----0---------0---------|
|-(0)-------------|-------3s5-(5)---3p0-----|
|-----------------|-2s4-----------------2p0-|
|----------2------|-------------------------|
|--------2--------|-------------------------|
|--0---3------0-0-|-------------------------|


  A7                      N.C.
|-----3---3-3---3-|-(3)---------------|
|-----2---2-2---2-|-(2)-2-------------|
|-----2---2-2---2-|-(2)-2---------0-2s|
|-2-2---2-----2---|-----------0h2-----|
|-0-0-------------|-------0h2---------|
|-----------------|-------------------|


|----------------3-5-|-5b7==(5)r-5p3---5-3-----||
|---3h5-3h5-3h5------|---------------5-----5-3-||
|-4------------------|-------------------------||
|--------------------|-------------------------||
|--------------------|-------------------------||
|--------------------|-------------------------||


|-0-------------------|-----------------------|-----0-(0)-----------0--------|
|-------3-----3-----3-|-----3-----3-----------|-----------3b5==(3)r---3p0----|
|---2s4---2s4---2s4---|-2s4---2s4---2p0---0-1-|-(1)-----------------------3--|
|---------------------|-----------------2---2-|-(2)--------------------------|
|---------------------|-----------------------|------------------------------|
|---------------------|-----------------------|------------------------------|


|-----------------3-5-|-5pb7r=(5)-5pb7==(5)r(5)-5pb7r=|
|-------------3s5-----|-------------------------5pb7r=|
|-2p0---2-0-----------|-------------------------------|
|-----2-----2---------|-------------------------------|
|---------------------|-------------------------------|
|---------------------|-------------------------------|


|-(5)-5pb7r(5)--5pb7r=(5)-5pb7r|=(5)--3-5---3--------|
|-(5)-5pb7r(5)--5pb7r=(5)-5pb7r|=(5)------5---5p3----|
|------------------------------|------------------2s=|
|------------------------------|---------------------|
|------------------------------|---------------------|
|------------------------------|---------------------|


                        E7                                  E7+9
|---------------------|-----------------|-----------------|-----3---3-3---3--|
|---3---------2-------|-----3---3-3---3-|---3-------------|-----3---3-3---3--|
|-4---4s2p0---2-0-----|-----1---1-1---1-|---1-------------|---------1-1---1--|
|-----------2-----2-0-|-2---------------|-2-------0-2-0-2-|-------2-----2----|
|---------------------|-----------------|-----2-2---------|------------------|
|---------------------|---0---0-----0---|-----------------|-0-0--------------|

[ Tab from: http://www.guitartabs.cc/tabs/v/vaughan_stevie_ray/wham_tab.html ]
       N.C.                 (E7+9)
|---3/-------------------||-------------------------|
|---3/-------------------||-------------------------|
|---1/-------------------||-------12----12-12----12-|
|-2----------12-14-12-14-||-14-14-12-14-12-12-14-12-|
|------12h14-------------||-------------------------|
|------------------------||-12-12-------------------|


|-------------------------|--------------------------|
|-------------------------|--------------------------|
|-------12----12-12----12-|-------12----12-12----12--|
|-14-14-12-14-12-12-14-12-|-14-14-12-14-12-12-14-12--|
|-------------------------|--------------------------|
|-12-12-------------------|-12-12--------------------|


|----------------------12-|-------12----12-12----12-|
|----------------------12-|-------12----12-12----12-|
|-------12----12-12-------|-------12-------12----12-|
|-14-14-12-14-12-12-14----|-14-14----14-------14----|
|-------------------------|-------------------------|
|-12-12-------------------|-12-12-------------------|


|-------12----12-12-----------|-------12-------12--------------12-------12-|
|-------12----12-12----15b17==|=(15)r----15b17----15b17==(15)r----15b17----|
|-------12-------12-12--------|--------------------------------------------|
|-14-14----14-----------------|--------------------------------------------|
|-----------------------------|--------------------------------------------|
|-12-12-----------------------|--------------------------------------------|


|-------12--------------12--------------------|-------12-12-15b17==(15)r-15-12-14p12----|
|-15b17----15b17==(15)r-----------------------|-------12-12--------------------------15-|
|--------------------------14p12----12-14b16==|=(14)r-----------------------------------|
|--------------------------------14-----------|-----------------------------------------|
|---------------------------------------------|-----------------------------------------|
|---------------------------------------------|-----------------------------------------|


                                            (E7)
|-12--------------------------------------|------12---12-12---------|
|----15p12--------------12-------------12-|------12---12-12---------|
|----------14b16==(14)r----14-12----12-13-|----0----0-------14-12h==|
|--------------------------------14-------|-14-0----0-------14-12---|
|-----------------------------------------|-------------------------|
|-----------------------------------------|-------------------------|


|------------------------12-------||-12-------12-------12-------12-------|
|----12------------15b17----15b17-||----15b17----15b17----15b17----15b17-|
|-13----13------------------------||-------------------------------------|
|-12-------------0----------------||-------------------------------------|
|----------14-14------------------||-------------------------------------|
|---------------------------------||-------------------------------------|


|-12-------12-------12-------12-------|-12-------12-------12-------12-------|
|----15b17----15b17----15b17----15b17-|----15b17----15b17----15b17----15b17-|
|-------------------------------------|-------------------------------------|
|-------------------------------------|-------------------------------------|
|-------------------------------------|-------------------------------------|
|-------------------------------------|-------------------------------------|


|-12-------12-------12--------------15-17-17-|
|----15b17----15b17----15b17==(15)r----------|
|--------------------------------------------|
|--------------------------------------------|
|--------------------------------------------|
|--------------------------------------------|


|-17b18==17-17-17-17-17r-17pb19==17-17-17-17-17-|-17r(17)-15-17-15-15----------|
|-----------------------------------------------|---------------17----17p15----|
|-----------------------------------------------|---------------------------16-|
|-----------------------------------------------|------------------------------|
|-----------------------------------------------|------------------------------|
|-----------------------------------------------|------------------------------|


     E7    A     E                      A     E7
|----------------------12-12----|-12-12----------------------------12-|
|----12----14----12----12-12----|-12-12-14-------------------------12-|
|-12h13----14-12h13-------------|-------14-12h13-(13)-14b16==(14)r----|
|----12-14----------14-------14-|-------------12-(12)-----------------|
|-------------------------------|-------------------------------------|
|-------------------------------|-------------------------------------|


|-12-------12-15p12-----------------12--------|------------------------------------|
|-12-14b16----------14b16==(14)r-12-12--------|-----------15--------------15-------|
|--------------------------------------14b16==|=(14)--14r----14b16==(14)r----14-12-|
|---------------------------------------------|------------------------------------|
|---------------------------------------------|------------------------------------|
|---------------------------------------------|------------------------------------|


  E           A  Em         E
|-------12-------12-------|--------------------12-12---||
|-------12----14-12-------|----12-12-10--------12-12---||
|-------13----14-12-------|-12h13----------------------||
|-14-14----14-------14-14-|-------------9-9----------0-||
|-------------------------|--------------------------0-||
|-------------------------|-----------------10---------||


      E6                   E             A
|-----12----12----12-------12-|-----------------------------------|
|-----12h14-14-12h14-12----12-|----12----14-----------------------|
|-----------------------14----|-12h13----14-12b13-----------------|
|-(0)-------------------------|-------14----------14p12----12-14--|
|-(0)-------------------------|-------------------------14--------|
|-----------------------------|-----------------------------------|


  A7        E7
|---------------------|-----------------------|
|---------0-----------|-----------------------|
|------12-0-11s13-----|-12s13---12s13---12s13-|
|---14-11---10s12-----|-11s12---11s12---11s12-|
|-0-----------------0-|-----------------------|
|-----------------0---|-------0-------0-------|


  A7                    A7/E
|---------------------|----------------------------|
|---------------------|----------------------------|
|-----12---12-12------|-12-------12-(12)----12-----|
|-----11---11-11------|-11-------11-(11)----11-----|
|---0----0-------0----|----------------------------|
|-0----------------12-|----12-12---------12----12--|


        E7     A     E                  A     E
|-----------------------------|-------0---------------------------|
|--------------14----12-------|----12---14----12---------------12-|
|-12-12s13-----14-12h13-------|-12h13---14-12h13--14b16==(14)r----|
|-11-11s12--------------14-14-|-----------------------------------|
|-----------------------------|-----------------------------------|
|-----------12----------------|-----------------------------------|


|-12-12-10b12==(10)r-12-10-------|
|----12-10b12==(10)r-----------0-|
|--------------------------7s2-0-|
|--------------------------------|
|--------------------------------|
|--------------------------------|


                                                                Outro
                                                                 H.=H
                                                 D.S. al Coda &
                          E   E7+9              B7                 E7   B9
                                                                        ~
|-----------------------|---0-3---3-3-----|-3-----------------||-3s4----2----|
|-----3-----3-----------|---0-3---3-3-----|-3-0-0-------------||-2s3----2----|
|-2s4---2s4---2p0---0-1-|---1-1---2-2-----|-1-0-2-2-(2)-------||-3s4----2----|
|-----------------2-----|-2-----2---------|-------1-(1)-------||-------------|
|-----------------------|-------2---------|-----2-------------||-------------|
|-----------------------|-------------0-0-|--------------0-0--||-------------|


  E     N.C.
|-^0----0---------0-----|---------------------------------------:
|-^0------3p0-----------|---------------------------------------:
|-^1----------2s4---3p2p|=0---2p0-------------------------------:
|-^2--------------------|---2-----2-0h2-0---------------2-----2-:
|-^2--------------------|-----------------2-1-0h1p0-------------:
|-^0--------------------|---------------------------3p0---0-0---:


          ~~~~~~~~~~~~
|--3-----(3)----:-(3)----*|
|--3-----(3)----:-(3)----*|
|--0-----(0)----:-(0)----*|
|-(2)----(2)----:-(2)----*|
|---------------:--------*|
|---------------:--------*|



Comments