Vaughan Stevie Ray - Traffic Jam Chords & Tabs

 

Traffic Jam Chords & Tabs

Vaughan Stevie Ray Chords & Tabs

Version: 2 Type: Tab 0 ratings
1 star 2 stars 3 stars 4 stars 5 stars
comments

Traffic Jam Tab

email me with any questions kahn8287@aol.com




e------------------------------
B------------------------------
G---------5-7-5---------------- x4
D---5h7-7-------7-5------------
A------------------7-----------
E------------------------------

e---------------------------------------
B------6-8-6-------------8b10-8-6-------
G--7-7-------7-5-----7-7----------7-5---
D----------------7--------------------7-
A---------------------------------------
E---------------------------------------

e------------------------------
B------------------------------
G---------5-7-5---------------- x2
D---5h7-7-------7-5------------
A------------------7-----------
E------------------------------
[ Tab from: http://www.guitartabs.cc/tabs/v/vaughan_stevie_ray/traffic_jam_tab_ver_2.html ]
e--------------------------------------------------------------
B-------8-10-8--------------6-8-6------------------------------
G--/9-9--------9-7------7-7-------7-5----------5-7-5-----------
D------------------9------------------7----7-7-------7-5-------
A--------------------------------------------------------7-----
E--------------------------------------------------------------

e------------------------------
B------------------------------
G------------------------------
D-7-7-7-7-7-7--6-6-6-6-6-6-----
A-7-7-7-7-7-7--6-6-6-6-6-6-----
E------------------------------

e------------------------------
B-7b-7b-7b-7b-7-5--------------
G-----------------7-5---5-7----
D---------------------7--------
A------------------------------
E------------------------------

e--------------------------------------------------------------------
B--7b-let down slowley and pluck--7---7---7---7---7---7----7-5-------
G--7b-------------------------------7---7---7---7---7---7------7-5-7-
D--------------------------------------------------------------------
A--------------------------------------------------------------------
E--------------------------------------------------------------------

THEN SRV IMPROVISES A PENTATONIC ON THE 5TH AND SO ON
Comments