Vaughan Stevie Ray - Tell Me Chords & Tabs

 

Tell Me Chords & Tabs

Vaughan Stevie Ray Chords & Tabs

Version: 1 Type: Tab 2 ratings
1 star 2 stars 3 stars 4 stars 5 stars
comments

Tell Me Tab

Artist: Stevie Ray Vaughan
Song: Tell Me
Tabber: SRVfan2004
email: shylanl@hotmail.com or testuber@yahoo.co.uk

E----------------------------------------------x--------------
B------------------------------------------------x------------
G--------------------------------------------------x----------
D-x-12-12-14-12-15-12-14--10-10-12-10-13-10-12-------x--------
A-x-10-10-10-10-10-10-10--8--8--8--8--8--8--8-----------------
E------------------------------------------------------8-8----

      turnaround figure
E-------------------------------11-10~~--10--8---------------
B-------------------------------11-10----10--8---------------
G-9----9-10p9-10-11p10-11-12----11-10----10------------------
D---10--------------------------10-9-------------------------
A------------------------------------------------------------
E----------------------------0-------------------------------

now its just a straight 12 bar blues in C

E------------------------------------------------------------
B------------------------------------------------------------
G------------------------------------------------------------
D------------------------------------------------------------
A-10-10-12---10-10-12---10-10-12---10-10-12---10-10-12-13-10-
E-8--8--8--0-8--8--8--0--8-8--8--0--8-8--8--0-8--8--8--8--8--

    rake
E----x--------------------------------------------------------
B----x--------------------------------------------------------
G----x--------------------------------------------------------
D----x--------------------10-12---10-12-10-12-10-10-12-x-x-x--
A-12-x--10-10-12---10-----8--8----8--8--8--8--8--8--8--x-x-x--
E-8--x--8--8--8--0-8--x-x-------0-----------------------------

                         rake
E-------------------------x-----------------------------------
B-------------------------x-----------------------------------
G-------------------------x-----------------------------------
D-------------------------x--------------------12-12-12-14----
A-10-10-10-12-10-13-10-12----10-10-12---10-x-x-10-10-10-10----
E-8--8--8--8--8--8--8--8-----8--8--8--0-8--x-x----------------

                                turnaround
E------------------------------------------------------------
B------------------------------------------------------------
G----------------------------------9----9-10p9-10-11p10-11-12
D-x-x-12-14---10-12-10-10-12-0--10---10----------------------
A-x-x-10-10---8--8--8--8--8--0-------------------------------
E------------------------------------------------------------

E---11-10~~-x-x------------------------------------------------------
B---11-10---x-x---------------------------------------------------
G---11-10---x-x----------------------------------------------------
D---10-9--------------------------------------------------------
A------------------------------------------------------------
E-0-----------------------------------------------------------

the rest of the song goes in this order..

main C 12 bar blues pattern
turnaround
main C 12 bar blues pattern
turnaround

solo

E-------8---8---10-8----8-------8-8------8-------------------
B-8-----8---8---10-8----8-----8-8-8-11p8---------------------
G-10b12---------10-8~~--10b12--------------10b12-10b12-10p8--
D---------x---x----------------------------------------------
A---------x---x----------------------------------------------
E------------------------------------------------------------

E--------------------8-8--------------8-------8---11-8---11-8
B--------------------8---11-8-------8---11b12-8-8------8-----
G----8---------10b11----------10b11--------------------------
D-10---10p8--------------------------------------------------
A-----------10-----------------------------------------------
E------------------------------------------------------------
[ Tab from: http://www.guitartabs.cc/tabs/v/vaughan_stevie_ray/tell_me_tab.html ]
E---11-8---11-8---11-8---11b12-8---11b13-11~~-8--------------
B-8------8------8------8---------8--------------11-8---------
G----------------------------------------------------10b12---
D------------------------------------------------------------
A------------------------------------------------------------
E------------------------------------------------------------

E-----------------8---------------------------------x--------
B---------------8---11-8----------------------------x--------
G-10p8----10b12----------10b12--8-10-8~---------8h9-x--------
D------10-------------------------------10p8-----------------
A--------------------------------------------10--------------
E------------------------------------------------------------

  hold note and strike 11x
E------------------------------------------------------------
B------------------------------------------------------------
G-10b12---------------------10b11-10b11-10b12-10-8-----------
D--------------------------------------------------10-8------
A-------------------------------------------------------10-9-
E------------------------------------------------------------

E-----------------------------8------------------------------
B---------------------------8-8-11-11----11------------------
G---------------------10b12--------10b12----10b12-8----8h9---
D---------------8--10-------------------------------10-------
A-8h9p8----8-------------------------------------------------
E-------11---11----------------------------------------------

                                                 tremolo
E------------------11----11----11----11----11----11----11----
B-12---------------11----11----11----11----11----11----11----
G---12-------10b12-10b12-10b12-10b12-10b12-10b12-10b12-10b12-
D-----x------------------------------------------------------
A------10-10-------------------------------------------------
E------------------------------------------------------------

   picked-->
E-11----11-11--11-11---8-10-----10-8----10b12--10-8~-8-10p8--
B-11----11-11--11-11---8-10-8---10-8----10b12--10-8~-8-10p8--
G-10b12-10-8---10-8----8-10-8b9-10-8----10b12--10-8~-8-10p8--
D------------------------------------10----------------------
A------------------------------------------------------------
E--------------------0---------------------------------------

E----8-16-16-16\---8-8-8-------8----------------8---------8--
B----8-16-16-16\---8-8-8-----8--------------8h9-8-------8----
G----8-15-15-15\-0-----10b12-----10b11-10p8-----8-10b11------
D-10-------------0-------------------------------------------
A------------------------------------------------------------
E------------------------------------------------------------

E---------10-8h9p8-------------8-13b14b15-13b15-13b15-13b15--
B-11b12-8----------11-8~~----8-------------------------------
G-------------------------10---------------------------------
D------------------------------------------------------------
A------------------------------------------------------------
E------------------------------------------------------------

E-11-13-----------------8------------------------------------
B-------13~-13~-------8---11-------11------------------------
G---------------10b12--------10b12----10p8----8h9----10-x-x--
D------------------------------------------10-----9--9--x-x--
A-------------------------------------------------10-10-x-x--
E------------------------------------------------------------

then back to:

main C 12 bar blues pattern
turnaround
main C 12 bar blues pattern

then
E-11-8-8h10----8---------8----13-12--------------------------
B-----------11---11-8----8----13-12--------------------------
G---------------------10-8b10-13-12--------------------------
D------------------------------------------------------------
A------------------------------------------------------------
E------------------------------------------------------------


Comments