Vaughan Stevie Ray - Shake For Me Main Riff Chords & Tabs

 

Shake For Me Main Riff Chords & Tabs

Vaughan Stevie Ray Chords & Tabs

Version: 1 Type: Tab 0 ratings
1 star 2 stars 3 stars 4 stars 5 stars
comments

Shake For Me Main Riff Tab

The other tab for this song just didn't look right to me, 
so here's how I play just the intro and the main riff.

/=slide up

I always played it in the key of A. 
If you want to play it in B just move everything up two frets.

Intro:


e------12-------------10-------------------------5----55555---------------
B------12--15b17------10--13b15--13p10-13p10-----5----55555---------------
G---/13------------/11-------------------------/6---/6-6666---------------
D-------------------------------------------------------------------------
A------------------------------------------------------------7-7-7-7-7-7-7
E-------------------------------------------------------------------------



the main riff:

[ Tab from: http://www.guitartabs.cc/tabs/v/vaughan_stevie_ray/shake_for_me_main_riff_tab.html ]
e-----5-----------------------5----------5-----------------------5--5--------
B-----5-----------------------5--8b10----5-----------------------5----5trill8
G---/6----------------------/6---------/6----------------------/6------------
D----------------------------------------------------------------------------
A--------------5-5-5-5-6-7------------------------5-5-5-5-6-7----------------
E--------8--8-------------------------------8--8-----------------------------


e-----10-----------------------------10-----------5-----------------------5--5------
B-----10-----------------------------10--13b15----5-----------------------5----8----
G---/11----------------------------/11----------/6----------------------/6----------
D-----------------------------------------------------------------------------------
A---------------10-10-10-10-11-12--------------------------5-5-5-5-6-7--------------
E--------11--11--------------------------------------8--8---------------------------


Then play the intro again:

e------12-------------10-------------------------5----55555---------------
B------12--15b17------10--13b15--13p10-13p10-----5----55555---------------
G---/13------------/11-------------------------/6---/6-6666---------------
D-------------------------------------------------------------------------
A------------------------------------------------------------7-7-7-7-7-7-7
E-------------------------------------------------------------------------







Comments