Vaughan Stevie Ray - Im Leaving You Woman Chords & Tabs

 

Im Leaving You Woman Chords & Tabs

Vaughan Stevie Ray Chords & Tabs

Version: 1 Type: Tab 2 ratings
1 star 2 stars 3 stars 4 stars 5 stars
comments

Im Leaving You Woman Tab

Artist: Stevie Ray Vaughan
Song: I'm Leaving You Woman(Commit a crime)
Tabber: SRVfan2004
Email: shylanl@hotmail.com or testuber@yahoo.co.uk

with moderate distortion

E-14------------14-12~~~--------------------14-----------14--
B---14----------14-12------14-12---14-12----14---12~~~---14--
G-----14--------14-12------14-12---14-12----14---12------14--
D-------x------------------------x-------14------------------
A--------x---14------------------x---------------------------
E----------0-0---------------------------------x-------0-----

E----------12----------------14--------14---------12---------
B-12~~--14-12----14-12-------14---12---14-12---14-12----14---
G-12----14-12----14-12-------14---12---14-12---14-12----14---
D----------------------14------------------------------------
A------------------------------------------------------------
E-------------12----------12----12---0---------------12------

E-------14---------------------------------------------------
B-12----14--12~~-14-12---14-12---15-15-15-15-15---------14---
G-12----14--12---14-12---14-12---14-14-12-14-12---------14---
D----14-----------------------------------------14-12--------
A------------------------------------------------------------
E------------------------------12---------------------0------

E-----------------------14------------------12----14---------
B-12~~--14-12--14-12----14-12---14-12----14-12----14-12------
G-12----14-12--14-12----14-12---14-12----14-12----14-12------
D--------------------14------------------------14------------
A------------------------------------------------------------
E------------0----------------0-------12----------------0----

E-------------------12----14----------------------14-------14
B-14-12---14-12--14-12----14-12---14-12--14-12----14-12----14
G-14-12---14-12--14-12----14-12---14-12--14-12-------12----14
D----------------------14----------------------14-------14---
A------------------------------------------------------------
E-------------------------------0----------------------------
                                              
E------------------------------------------------------------
B---12----14-12---14-12---14-12-------14-12------------------
G---12----14-12~~-14-12---14-12-------14-12------------------
D------14-----------------------14---------------------------
A------------------------------------------------------------
E-0---------------------12---------12-------0----------------

  
E------------------------------------------------------------
B-----------------------14-12--14-12---14-12----14-12~~------
G-------14-12-----------14-12--14-12---14-12----14-12--------
D-------------14-12--------------------------14--------------
A------------------------------------------------------------
E-------------------0-0--------------12----------------------
      
     
E-------------------------------14-12------------------------
B-------------------------------14-12---14-12-12-14-12----15-
G-------------------------------14-12---14-12-12-14-12-------
D------------------------------------------------------14----
A------------------------------------------------------------
E-0-----------------------------------0----------------------
                                                      
E----12------------------------------------14----------------
B----12---14-12~~-14-12---14-12---14-12----14---12-----------
G-14-12---14-12---14-12---14-12---14-12----14---12-----------
D---------------------------------------14-------------------
A------------------------------------------------------------
E-------0---------------0---------------------0-----0--------

  
E------------------------0-------------------------14-12-----
B------------------------0-------14-12~~--14-12----14-12-----
G-----------------14-14\-0-2-0---14-12----14-12----14-12-----
D--------------------------------14-12----------14-------14--
A------------------------------------------------------------
E------------------------------0-----------------------------
               
E--------------------------------------0-----12-----14-12----
B---14-12~~----------------------------0--14-12-----14-12----
G---14-12------------------------------0--14-12-----14-12----
D------------------------------------------------------------
A------------------------------------------------------------
E-0---------0-----------------------------------0-0----------

E-----------------------------------12~~---------------------
B-14-12--14-12----15---15-12-----14-12---14-12---14-12-------
G-14-12--14-12----14---14-12-----14-12---14-12---14-12-------
D--------14----14----------------14------14------14-12--14-12
A------0-----------------------------------------------------
E------0---------------------0-0---------------0-------------

         
E-14-------------------------12-12-------------------------12
B-14-12~~--------------------15-15-----12---14-12~~--14-12-15
G-14-12--------------------------------12---14-12----14-12---
D-14----------------------------------------14-12------------
A------------------------------------------------------------
E---------0-------------------------------0------------------

                      
E-0---------------------------------------------------12-----
B------0-2-----------------------------------------14-12-----
G---2\-0-2-0---0-----------------------------------14-12-----
D------0-2---2-0-----2---------------------------------------
A------------------------------------------------------------
E----------------0-0--------------------------------------0--

E-14--------------------------0------------------------------
B-14-12~~--14-12---2-0------------0-----14-12~~-14-12---14-12
G-14-12----14-12---2-0----2/4---2-0-----14-12---14-12---14-12
D----------------0-----2p0------2-0-----14-------------------
A----------------0-------------------------------------------
E-----------------------------------0-0---------------0------

E----------14--------14----------------14-12-------14--12----
B----15-12-14-12-----14--12~~--14-12---14-12-------14--12----
G----14-12-14-12-----14--12----14-12---14-12-------14--12----
D-14-----------------------------------------14p12-----------
A------------------------------------------------------------
E----------------0-0-----------------0-----------------------

  
E-----------------------------12----12--------12--------14---
B-----------------------------12----12-----14-12-14-12--14---
G-----------------------------14-14-12-----14-12-14-12--14---
D-------------------------------------------------------14---
A------------------------------------------------------------
E-0------------------------------------0-0------------0------
                 
E-12-------14------------------------------0-14-12-----14----
B-12-------14------------------------------0-14-12-----14-12-
G-12-------14------------------------------0-14-12-----14-12-
D----14-12---------------------------------0-----------14----
A------------------------------------------------------------
E-------------0------------------------------------0-0-------

E-------------------------------14-12------------------------
B-14-12---14-12----15-15-12-----14-12--14-12----14-12--------
G-14-12---14-12----14-14-12-----14-12--14-12----14-12--------
D---------------14------------------------------------14-----
A------------------------------------------------------------
E-------0-------------------0-0--------------12----------12--
         
           
E-14------------------------------12-------------------------
B-14--12~~------------------------12---------------------14--
G-14--12--------------------------14--14-14-12----12-----14--
D----------------------------------------------14-12---------
A------------------------------------------------------------
E----0----0------------------------------------------0-0-----
                             
                              
E-------------14-12----14-------------------------------14---
B-------12----14-12----14-------------------------------14---
G-12-14-12----14-12----14-12----------------------------14---
D----------14-------14---------------------------------------
A------------------------------------------------------------
E----------------------------0-------------------------------

E------14--------------------------------0-------------------
B-12---14-12------12----14-12------------0---------------14--
G-12---14-12---14-12----14-12------14b16---14-12b13------14--
D--------------------14-------14-0---------------------------
A--------------------------------0---------------------------
E----0-----------------------------------------------0-0-----
                                      
                                     
E-------14-12----14-12------14-------------------------------
B-12~~--14-12----14-12------14-------------------------------
G-12----14-12----14-12----0-14---12--------------------------
D----------------------14-0----------------------------------
A-------------------------0----------------------------------
E-------------12---------------0----0------------------------

E-12----x---------14-----------------------------------------
B-15b17-x-2-0-----14-12---14-12----14-12----14--12~~---------
G---------2-0-----14-12---14-12----14-12----14--12-----------
D---------2-0-------------------14-------14-14---------------
A------------------------------------------------------------
E-------------0-0-----------------------------0--------------

  
E--------------------------------------------0---------------
B--------------------------14-12-------------0-------0-------
G--------------------------14-12-----2b3b4b5---2b4p0-0-------
D----------------------------------0-------------------2-0---
A------------------------------------------------------------
E-0------------------------------0---------------------------

E----------------14-12~~------------------14------------14---
B----------------14-12---14-12---14-12----14---12~~-----14---
G----------------14-12---14-12---14-12----14---12-------14---
D-----0--------------------------------14--------------------
A-0h2---0----------------------------------------------------
E---------3-0-0----------------0-------------0------0-0------

                                   
E-12~~------------------14-------------------------------12--
B-12---14-12---14-12----14----12~~--------------------12-12--
G-12---14-12---14-12----14----12----------------------12-14--
D--------------------14--------------------------------------
A------------------------------------------------------------
E--------------------------0---------------------------------
[ Tab from: http://www.guitartabs.cc/tabs/v/vaughan_stevie_ray/im_leaving_you_woman_tab.html ]
E----------------------------------------12----14------------
B-------12-----------14-12---14-12----14-12----14----12~~----
G-14b16-12-----------14-12---14-12----14-12----14----12------
D----------14-12----------------------------14---------------
A-------------------------------------------------14---------
E----------------0-0---------------0--------------0------0---

  
E-----------------------------0----12---12-------------------
B-----------------------------0-14-12---15b17-15b17~-15b17-12
G-----------------------------0-14-12------------------------
D-----------------------------0------------------------------
A------------------------------------------------------------
E-------------------------------------0----------------------

E-------12---------15b17-15~--12-------------12--------------
B--------------------------------15-12-------12---------14-12
G-14b16----14-12-----------------------14b16----14b15---14-12
D------------------------------------------------------------
A------------------------------------------------------------
E----------------0------------------------------------0------

         
E------------------------------------14------------14--------
B----------------------------12-14---14-12---------14-12~----
G----12----------------------12-14---14-12---------14-12--14-
D-14-12------------------------------------14-12-------------
A------------------------------------------------------------
E--------0------------------------0--------------0-----------
                           
E---------------14-------------------------------------14-12-
B-12---14-12----14-------------------------------------14-12-
G-12---14-12----14---12~-------------------------------14-12-
D------------14----------------------------------------------
A------------------------------------------------------------
E----0-------------0-----0-----------------------------------

E----------------------14-12--------------12------12~~-------
B-----14-12---14-12----14-12-------15--15-12-0-14-12------12-
G-----14-12---14-12----14-12-------14--14----0-14-12---14-12-
D----------------------------14-12-----------0---------------
A------------------------------------------------------------
E-0-0---------------0----------------------------------------

                      
E-------12----14---------------------------------------------
B----14-12----14---12~------------------------0--------------
G----14-12----14---12-------------------------0-2b4-2b4-2p0--
D----------14----0----------------------------0--------------
A-14---------------------------------------------------------
E-0--------------------0-------------------------------------

                                
E---------0--------------------------------------------------
B------------------------------------------------------------
G-----------------2b4-2-0---0--------------------------------
D-2p0-------------------0-2p0--------------------------------
A------------------------------------------------------------
E-----0-0---0-0-0--------------0-----------------------------


E-17\-------14-12----------14-12----14-----------14----------
B-17\-0-----14-12--14-12---14-12----14-----------14-12~--14--
G-----0-----14-12--14-12---14-12----14---12~~----14-12---14--
D-----0--------------------------14--------------------------
A--------------------------------------0---------------------
E-------0-0--------------0-------------0-----0-0-------------
              
                                    
E----------------14-12------14-------------------------------
B-12~~--14-12----14-12------14-------------------------------
G-12----14-12----14-12------14---12~-------------------------
D----------------------14------------------------------------
A------------------------------------------------------------
E-------------0-----------0----0------0----------------------

                      hold bends
E------------------------------------------------------------
B----0--15b17-15b17----15b17-15b17-15b17-15b17-15b17-15b17---
G----0-------------------------------------------------------
D------------------------------------------------------------
A------------------------------------------------------------
E------------------------------------------------------------

                       
E------------------------------------------------15b17-15-12-
B-15b17-15b17~~--15b17\--------------------------------------
G------------------------------------------------------------
D------------------------------------------------------------
A------------------------------------------------------------
E----------------------------------------------0-------------

E-------------------------------------------15b17-15-12------
B-12-15-------------------------------------------15----12---
G-------16\15-12----12---------------------------------------
D----------------14-12-14p12---------------------------------
A----------------------14p12-12-10-11------------------------
E-------------------------------------12-12------------------

                            tremolo picked
E-21\-0-------------------------/15-15-15--------------------
B-----0-----14-12-14-12---15-15-/12-15-14-15-14-12-----------
G-----0-/14-14-12-14-12---16-16-/12-12-12-15-14-12-14b16-14--
D------------------------------------------------------------
A------------------------------------------------------------
E------------------------------------------------------------

E------------------------------------------------------------
B-------15-12------------------------------------------------
G-12----------14p12-14p12-14b16-14b15-14b16-14b16-14b16-14b16
D----14------------------------------------------------------
A------------------------------------------------------------
E------------------------------------------------------------

E------------------------------------------------------------
B-12-------12-----------------12-15-12b16-12b16-12b16-12b15--
G----14b16----14-12b13---------------------------------------
D---------------------14-12-14-------------------------------
A------------------------------------------------------------
E------------------------------------------------------------

E----------------------------------12-12---------------------
B-12b15-12b15-12-------------------12----15-12\--------------
G----------------14p12----12-14b15--------------0-----2b3-0--
D----------------------14-------------------------2-0--------
A------------------------------------------------------------
E------------------------------------------------------------

E----------------------------------------------------------0-
B--------------------------------------------------------2-0-
G--------------------------------------------------------2-0-
D-2-0-------------0---14\--------------------------------2-0-
A-----2-1-0h1p0-----------0---0---0---0-0---0-0--------------
E---------------3---0-------3---3---3-----3-----0-3/12\0-----

E-----------------------------0-3-0---0----------------------
B-----------------------------0---0-3-0----------------------
G-2b4-2p0---------------------0---------2b4-2p0---0-2-0------
D---------2-----0-------0h2---------------------2p0-2-0-2p0--
A-----------0h2---1p0----------------------------------------
E---------------------3-----0-------------------------------0

                          play that another 7 times
E-3-0-----0--------------0h2-0h2--------------------2/3-3-2--
B---0-----0----0---0-----0-0-0-0--------------------0-0-0-0--
G-----2b3--2/4---4-0-3/4-------------------------------------
D------------------------------------------------------------
A------------------------------------------------------------
E------------------------------------------------------------

E-2-0---0---------------------------------------0---0-------0
B-0-0-3-0-----0-2-0-------------------------0-2-------3-3b4-0
G---------2/4---2-0h1-----------------------0-2--------------
D---------------------2p0-----0-----------2-0-2--------------
A-------------------------0h2---0h1p0-------------2----------
E-------------------------------------3-0---------0----------

E-----------------0---3b4-------------------0-3b4------------
B-----3-2-0-------0-x-2b3-----3-----0-------0-2b3-----3-3-2--
G-2/4-4-2-0---------x-----2/4---4---0-------------2/4---4-2--
D-------2-0-2p0h2---x-------------2-0-2p0h2------------------
A------------------------------------------------------------
E------------------------------------------------------------

E---------0-3---0-------------3---0-12-----------12----------
B-0-------0-2b3-0-----3---2p0-3/5-0-12-----------12-14-------
G-0-------0-------2/4---2-2p0-------12-12--------12-14-12----
D---2p0--------------------------------------------------14--
A--------------------------------------------------------14--
E-------0---------------------------------x-x-12-------------

E------------------------15-12-------------------------------
B-12-----14-12~~---------14----12----------------------------
G-12-----14-12--------------------14-12--14-12-14-14b15------
D----------------12-14---------------------------------------
A------------------------------------------------------------
E----0-0---------------0-------------------------------------

  hold bends and tremolo pick
E------------------------------------------------------------
B------------------------------------------------------------
G-14b16-14b16-14b19-14--------14b16-14b16-14-14-12h14-14-14b16
D------------------------------------------------------------
A------------------------------------------------------------
E------------------------------------------------------------

E-------------------------12-----------------------------------
B-------------------------12-----------------------------------
G-14-12h14p12----12-14b16----13\0---2/3\2p0-2-0----2-0---------
D-------------14------------------0------------2p0-2-0-----0---
A------------------------------------------------------0b2-----
E--------------------------------------------------------------

E-------------0-3---------0----------0-3---------------------
B-------------0-2b3-----3---2p0------0-2b3--2-----3-3-----0--
G-------------0-----2/4-----2p0------2--------2/4-4-4-4\2-0--
D---------2---------------------2----------------------------
A-0h1p0------------------------------------------------------
E-------3---0---------------------0--------------------------

E-------19\-x-0-3--------------------3b5-3-0-------0---------
B-------19\-x-0-2b3-----3-3-2p0--------------0-3b4-0-----3---
G---0---------------2/4---4-2p0---0----------0-------2/4-----
D-2p0-----------------------2p0-2-0--------------------------
A------------------------------------------------------------
E-----0------------------------------------------------------

E-----------------------------------------------------0------
B-------------------------------------------------------0-x--
G-4\2-oh1-----------------------------------------------0-x--
D---------2p0-----oh1-------2--2p0h2-trill---2------------x--
A-------------0h2-----1------------------------2p0-----------
E-----------------------3b4------------------------3p0-------
Comments