Vast - Free Chords & Tabs

 

Free Chords & Tabs

Vast Chords & Tabs

Version: 1 Type: Tab 0 ratings
1 star 2 stars 3 stars 4 stars 5 stars
comments

Free Tab

   
Free
Tabbed by El KoRNo (elkorny@hotmail.com)

^*^(*) = bend 1/2 step, then bend down to next note
p = pull off

my guitarist made it sound rite an hes pretty good so....yea woteva

standard tuning

Main Riff:

|------------------------------------------------------|
|------------------------------------------------------|
|------------------------------------------------------|
|-2-2----9-9------9-9----------------------------------|
|-2-2----7-7------7-7----------------------------------|
|-0-0----0-0------0-0------12-12-10-12-^12^(12)-10-12--|

Backround riff:
[ Tab from: http://www.guitartabs.cc/tabs/v/vast/free_tab.html ]
|-----------------------|-----------------------|
|-----------------------|-----------------------|
|-----------------------|-----------------------|
|-----------------------|-----------------------|
|-----------------------|-----------------------|
|-0--12--^12^(12)-10-12-|-0--12--^12^(12)-10-12-|

|-----------------------|----------------------------|
|-----------------------|----------------------------|
|-----------------------|----------------------------|
|-----------------------|----------------------------|
|-----------------------|----------------------------|
|-0--12--^12^(12)-10-12-|-12-12-10-12-^12^(12)-10-12-|

Chorus:

Emaj  Emaj7    Bm/F#  F#m9  
|-----------------------------------|
|--------0------12-----14-----------|
|--------8------11-----13---14p13---|
|-2------9------9------11-----------|
|-2------7------9------9------------|
|-0------0--------------------------|

Comments