Vast - Dirty Hole Chords & Tabs

 

Dirty Hole Chords & Tabs

Vast Chords & Tabs

Version: 1 Type: Tab 0 ratings
1 star 2 stars 3 stars 4 stars 5 stars
comments

Dirty Hole Tab

#----------------------------------PLEASE NOTE---------------------------------#
#This file is the author's own work and represents their interpretation of the #
#song. You may only use this file for private study, scholarship, or research. #
#------------------------------------------------------------------------------##

Dirty Hole
by VAST
Tabbed by Patrick McGuire
midpat@home.com 

Standard Tuning

Intro:
Organ Arr. for Guitar

e|------------|------------|
B|------------|------------|
G|------------|------------|
D|------------|------------| x6
A|------------|------------|
E|--2---0---6-|-5---4---3--|


Chorus Chords: (lately all i want...)

| D/F# | C#sus4 -- C# | Bm | E |

Piano Arr. for Guitar:

e|------------------|------------------|
B|------------------|------------------|
G|--------------3---|-----4-----4------|
D|--4-----2---------|---2-----2-----2--| x4
A|----4-----4-----4-|-0----------------|
E|------2-----2-----|-------4-----3----|
(sleep without a dream...)


Chorus 2

Chain Gang sample, then

Bass:
G|-----------------------|
D|-----------------------|
A|-----------------------|
E|-(12)\2--------(0)/12\-|

[ Tab from: http://www.guitartabs.cc/tabs/v/vast/dirty_hole_tab.html ]
Verse 2 Bass Riff:
G|-----------|------------|
D|-----------|------------|
A|-----------|------------|
E|-2---0---6-|-5---4---3--|


Chorus 3

Guitar:
e|---------------------------|
B|---------------------------|
G|-7-----6-----4-------------|
D|-7-----6-----4-------2-----|
A|-5-----4-----2-------2-----|
E|---------------------0-----|


Then:
e|-----------|------------|
B|-----------|------------|
G|-----------|------------|
D|-----------|------------|
A|-----------|------------|
E|-2---0---2-|-5---0---3--|


Chorus 4 (same as chorus 3)


Then Guitar:

e|-----------|------------|
B|-----------|------------|
G|-----------|------------|
D|-----------|------------|
A|-----------|------------|
E|-2---0---6-|-5---4---3--|


Outro:

Piano Arr. for Guitar:

e|--------------6---|-----7-----7------|
B|--7-----5---------|---5-----5-----5--|
G|----6-----6-----6-|------------------|
D|------4-----4-----|-7-----6-----5----| x3
A|------------------|------------------|
E|------------------|------------------|


e|--------------6---|---7-----7-----7--|-6----------|
B|--7-----5---------|---5-----5-----5--|-7----------|
G|----6-----6-----6-|---X-----X-----X--|-6----------|
D|------4-----4-----|---7-----7-----7--|-4----------|
A|------------------|------------------|------------|
E|------------------|------------------|------------|

Comments