Vaselines - Whitechapel Chords & Tabs

 

Whitechapel Chords & Tabs

Vaselines Chords & Tabs

Version: 1 Type: Chords

Whitechapel Chords

   
Very easy and catchy song by the Vaselines, that only has four chords played the same 
way during the entire song. Enjoy!

A     G     F     E 2x
(during these chords their respective bass notes are played by the solo guitar)

A           G
I got the feeling you...
               F
-I heard her call
        E
and I'm running
-I heard her call
A                 G
This feeling from you
               F
-I heard her call
         E
And it's hurting

  A        G     F             E
Tonight, tonight, this wonderful night.
  A        G    F
Tonight, tonight.
                  E
This wonderful night.

Why do you follow me...
-I heard her call
It's a weakness
-I heard her call
You live off my fears
-I heard her call
and I'm helpless.
[ Tab from: http://www.guitartabs.cc/tabs/v/vaselines/whitechapel_crd.html ]
Tonight, tonight, this wonderful night.
Tonight, tonight.
This wonderful night.

And now that you're so near...
-I heard her call
Suffocating.
-I heard her call
The look in your eyes,
-I heard her call
Why are you waiting.

Tonight, tonight, this wonderful night.
Tonight, tonight.
This wonderful night.

Solo (Listen to the song for the rhythm. The solo is played twice, and follows the same 
chords as the rest of the song.(A, G, F, E)

e|--------------------------------|
B|--------------------------------|
G|--------------------------------|
D|--------------------------------|
A|-0--2--3--0--2-3-------2------2-|
E|-----------------3--5----3--5---|


e|--------------------------------|
B|--------------------------------|
G|--------------------------------|
D|--------------------------------|
A|-------0-------0----------------|
E|-1--3-----1--3---0--------------|


Tonight, tonight, this wonderful night.
Tonight, tonight.
This wonderful night.

Tonight, tonight, this wonderful night.
Tonight, tonight.
This wonderful night.