Vasco Rossi - Come Stai Chords & Tabs

 

Come Stai Chords & Tabs

Vasco Rossi Chords & Tabs

Version: 2 Type: Tab 0 ratings
1 star 2 stars 3 stars 4 stars 5 stars
comments

Come Stai Tab

-----------------------------------------|---------------------------|
-----------------------------------------|-----------20-18---20------|
------\10--------\17-------\22-------\24-|--\17--20-------------17---|
----------\10--------\15-------\17-------|---------------------------|
-----------------------------------------|---------------------------|
--\12------------------------------------|---------------------------|

----------------|--------20------18------20----------18-20-18--------|
-20-18---20-----|-----------20------18-------18--21------------21-20-|
-------------17-|--\17-----------------------------------------------|
----------------|----------------------------------------------------|
----------------|----------------------------------------------------|
----------------|----------------------------------------------------|
[ Tab from: http://www.guitartabs.cc/tabs/v/vasco_rossi/come_stai_tab_ver_2.html ]
------------------------|--------------------------------------------|
------------------------|--------------------------------------------|
-20----------12\24------|------------------------17--17b-15----17-17-|
----20--17-----------15-|--15b-13---------15p13-------------17-------|
------------------------|---------15-15------------------------------|
------------------------|--------------------------------------------|

------------------------------------------\23-----------------17b----|
---------------------------------------16----------------------------|
-17b-15----17-17----17b-15--------\24---------------\19--------------|
--------17-----------------18-17----------------12-------13----------|
---------------------------------------------------------------------|
---------------------------------------------------------------------|

--17b--17\22--|---------------|
--------------|-20-18--20-----|questo finchè non
--------------|------------17-|finisce....
--------------|---------------|poi verso la fine
--------------|---------------|l'ultima nota
--------------|---------------|diventa il 15° tasto

Luke88

per qualche commento:
giannini_junior@yahoo.it
Comments