Vasco Rossi - Come Stai Chords & Tabs

 

Come Stai Chords & Tabs

Vasco Rossi Chords & Tabs

Version: 1 Type: Tab 0 ratings
1 star 2 stars 3 stars 4 stars 5 stars
comments

Come Stai Tab

   
Vasco Rossi - Come Stai [Ending Solo]

Artist: 	Vasco Rossi
Transcriber:	Michele Caldaroni

Chords: Cm Bb F F Eb Bd F F

   Cm                              Bb            F			F
e|----------15--13---15--------15--13--15-----|--19(20)--15--18v--15--19(20)------16--18/20--18--16-15-|
B|-/13--16---------------13----------------13-|-------------------------------18-----------------------|
G|--------------------------------------------|--------------------------------------------------------|
D|--------------------------------------------|--------------------------------------------------------|
A|--------------------------------------------|--------------------------------------------------------|
E|--------------------------------------------|--------------------------------------------------------|
[ Tab from: http://www.guitartabs.cc/tabs/v/vasco_rossi/come_stai_tab.html ]
  Eb                 Bb	    F                       Cm         Bb              F             F
e|-15---------------------------------------------|-------------------------------------------------------|
B|-----16-------------8---/20\--------------------|--------------13v--13p11-----/13--13v--13p10------/13v-|
G|---------15---------------------10--10----------|-/12\5--5----------------12-------------------12-------|
D|-------------17v--------------------------------|-------------------------------------------------------|
A|------------------------------------------------|-------------------------------------------------------|
E|----------------------------------------7/15\7--|-------------------------------------------------------|

             Eb           Bb                F                          Cm               Bb
e|------------------------------------|--17(18-17-18)--17--17/24-|-15--13--15-------15--13--15-----|
B|-13p11--9--8---/20---4/16---3/15----|--------------------------|-------------13---------------13-|
G|---------------------------------3--|--------------------------|---------------------------------|
D|------------------------------------|--------------------------|---------------------------------|
A|------------------------------------|--------------------------|---------------------------------|
E|------------------------------------|--------------------------|---------------------------------|
Comments