Varukers - Die For Your Government Chords & Tabs

 

Die For Your Government Chords & Tabs

Varukers Chords & Tabs

Version: 1 Type: Tab 0 ratings
1 star 2 stars 3 stars 4 stars 5 stars
comments

Die For Your Government Tab

ok heres my first tab.i like it alot.i got everything down instead of the little 
could barely hear it.here it goes.
[ Tab from: http://www.guitartabs.cc/tabs/v/varukers/die_for_your_government_tab.html ]
   intro
E---------------|
B---------------|
G---------------|
D--9~-7~-5~-4~--|
A--7~-5~-3~-2~--|then you pickslide.
E---------------|
   verse
E---------------------------|
B---------------------------|
G---------------------------|
D--9-9-9-9-9-9-xxxxxx--5--4-|
A--7-7-7-7-7-7-xxxxxx--3--2-|
E---------------------------|
   chorus
E-------------|
B-------------|
G-------------|
D--------6--8-|
A--7--9--4--6-|
E--5--7-------|

intro
verse
chorus
verse
chorus
intro

there it is.my first tab.hope it doesnt suck.if you wanna rub it in on how bad it sucks 
me at munkster790.
Comments