Vanilla Ice - Ice Ice Baby Hardcore Remix Chords & Tabs

 

Ice Ice Baby Hardcore Remix Chords & Tabs

Vanilla Ice Chords & Tabs

Version: 2 Type: Bass Tab 0 ratings
1 star 2 stars 3 stars 4 stars 5 stars
comments

Ice Ice Baby Hardcore Remix Bass Tab

   
Artist: Vanilla Ice fet. Korn
Song: Ice Ice Baby (Hardcore ?98 Remix)
Tuning: low to high C,G,C,F

Riff 1
F--------------------------------------------------------|
C--------------------------------------------------------|
G--------------------------------------------------------|
C--0-0--X--X-X--0-0--------------------------------------|

Riff 2
F--------------------------------------------------------|
C--------------------------------------------------------|
G--------------------------------------------------------|
C--0--0-0-0-0--1--0--0-0-0-------------------------------|

Riff 3
F--------------------------------------------------------|
C--------------------------------------------------------|
G--------------------------------------------------------|
C--0-0-X-0-0--0-0-0-0------------------------------------|

Chorus
F--------------------------------------------------------|
C--------------------------------------------------------|
G--------------------------------------------------------|
C--3-2-1-2--3-2-1-2--3-2-1-2--3-5------------------------|
[ Tab from: http://www.guitartabs.cc/tabs/v/vanilla_ice/ice_ice_baby_hardcore_remix_btab_ver_2.html ]
Riff 4
F--------------------------------------------------------|
C--------------------------------------------------------|
G--------------------------------------------------------|
C--3-2-1-X-----------------------------------------------|

Riff 5
F--------------------------------------------------------|
C--------------------------------------------------------|
G--------------------------------------------------------|
C--3-2-1-X--3-2-1--3/12--3-2-1-X--3-2-1--3/14------------|

Riff 6
F--------------------------------------------------------|
C--------------------------------------------------------|
G--------------------------------------------------------|
C--3-2-1--3-2-1--2-3-4-----------------------------------|
End
F--------------------------------------------------------|
C--------------------------------------------------------|
G--------------------------------------------------------|
C--3-2-1-2-3-2-------------------------------------------|

Order
Riff 1 (0:02-0:20)
Riff 2 (1:31-0:50 take 1 second rest at 0:44)
Riff 3 (0:51-1:00)
Riff 2 (1:10-1:29 take 1 second rest at 1:20)
Chorus (1:30-1:50)
Riff 4 (1:52-2:01)
Riff 5 (2:02-2:21)
Riff 6 (2:22-2:40)
Chorus (2:41-3:01)
Chorus (3:05-3:20)
End (3:21-3:25)
Comments