Vandenberg - Burning Heart Chords & Tabs

 

Burning Heart Chords & Tabs

Vandenberg Chords & Tabs

Version: 3 Type: Tab 0 ratings
1 star 2 stars 3 stars 4 stars 5 stars
comments

Burning Heart Tab

   
Hi I felt the intro on the other tab was a bit shallow so i made a few additions:

This song needs a good acoustic sound, so a good acc. guitar of modelling device
for your electric one, otherwise it'll soon sound crappy.

^ = 1/2 bend
* = when you've done the slide, hit 2 again to make the A sound clearly, so slide + hit.
0
**= stress this note

578
Intro
[ Tab from: http://www.guitartabs.cc/tabs/v/vandenberg/burning_heart_tab_ver_3.html ]
E---------------------------0**---------------------|
B-------------------------------(1)-----------------|
G--------------7--------------------(2)-------------|
D---------2/4-----4^/2*-----------------(2)---------|
A------0--0-------0--0------------------------------|
E--5------------------------------------------------|
repeat twice
                                         H       H   H
E---------------------------0**-----------12------7---5-|
B--------------------5--3--1--1/4--1--0---12------7---5-|
G--------------7--------------------------12------7---5-|
D---------2/4-----4^-5--4--2--2/4--2--0---12------------|
A-0----1--0-------0-----------------------12------------|
E-----------------------------------------12------------|
Comments