Vandals - The New You Chords & Tabs

 

The New You Chords & Tabs

Vandals Chords & Tabs

Version: 1 Type: Tab 0 ratings
1 star 2 stars 3 stars 4 stars 5 stars
comments

The New You Tab

   
THE NEW YOU - The Vandals

By:chris tagseth jughead_r17@hotmail.com

^  = p.m.
k  = keep bending
b  = bend
r  = release bend
fb = full bend
*  = don't play last time through
%  = pause

intro/bridge 1:
e|-0~-----0~-----0~----2~-|
B|-2~-----2~-----2~----2~-|
G|-2~-----2~-----2~----2~-|
D|-2~-----2~-----2~-------|
A|-0~-----0~-----0~-------|
E|------------------------|

part 2: x3         * * *
e|---2-------------0------|
B|-4---4-------------0----|
G|-4-----4-------4-----4--|
D|-4-------------2--------|
A|-2----------------------|
E|------------------------|

chorus: "every time i call......"
e|----5-5-5-5-----5-5-5-5---------------|
B|----5-5-5-5-----5-5-5-5---------------|
G|----6-6-6-6-----6-6-6-6---------------|
D|-7--7-7-7-7--7--7-7-7-7--4-4--2/4-2/4-|
A|-7--7-7-7-7--7--7-7-7-7--4-4--2/4-2/4-|
E|-5--5-5-5-5--5--5-5-5-5--2-2--0/2-0/2-|

fill:
e|-14-12-------------|
B|-------14-12-------|
G|-------------14-11-|
D|-------------------|
A|-------------------|
E|-------------------|
[ Tab from: http://www.guitartabs.cc/tabs/v/vandals/the_new_you_tab.html ]
verse 1:
e|---------------------------------------------------------------------------|
B|---------------------------------------------------------------------------|
G|------------7--7-7-7-7-7-7------------------4--4-4-4-4-4-4-----------------|
D|-3-4-5-6-7--7--7-7-7-7-7-7--7--7-7-7-7-7-7--4--4-4-4-4-4-4--4--4-4-4-4-4-4-|
A|-3-4-5-6-7--5--5-5-5-5-5-5--7--7-7-7-7-7-7--2--2-2-2-2-2-2--4--4-4-4-4-4-4-|
E|-1-2-3-4-5------------------5--5-5-5-5-5-5------------------2--2-2-2-2-2-2-|
   ^ ^ ^ ^ ^     ^ ^ ^ ^ ^ ^  ^  ^ ^ ^ ^ ^ ^  ^  ^ ^ ^ ^ ^ ^
e|---------------------------------------------------------------------------|
B|---------------------------------------------------------------------------|
G|-7--7-7-7-7-7-7------------------4--4-4-4-4-4-4--4--4-4-4-4-4-4------------|
D|-7--7-7-7-7-7-7--7--7-7-7-7-7-7--4--4-4-4-4-4-4--4--4-4-4-4-4-4------------|
A|-5--5-5-5-5-5-5--7--7-7-7-7-7-7--2--2-2-2-2-2-2--2--2-2-2-2-2-2------------|
E|-----------------5--5-5-5-5-5-5--------------------------------------------|
      ^ ^ ^ ^ ^ ^  ^  ^ ^ ^ ^ ^ ^
verse 2:
1st time:
e|-3------2------2-----------------------------------------------------|
B|-3------2------3-----------------------------------------------------|
G|-4------3------4-----------------------------------------------------|
D|-5-x14--4-x7---4-x21-------------------------------------------------|
A|-5------4------2-----------------------------------------------------|
E|-3------2------------------------------------------------------------|

2nd time:                                  <     play really fast     >
e|-3------2------2------3------2------2-----77778899101011111212131314-|
B|-3------2------3------3------2------3--------------------------------|
G|-4------3------4------4------3------4--------------------------------|
D|-5-x14--4-x7---4-x7---5-x14--4-x7---4-x14----------------------------|
A|-5------4------2------5------4------2--------------------------------|
E|-3------2-------------3------2---------------------------------------|

solo:                                                         <   x4    >
e|-----5-7-5-8b-8k-8k-8k-8r-7--%-14b-12k-13fb-----------12-----14b-12----|
B|-5-7------------------------5--------------%-14-12-14----14-%-------14-|
G|-----------------------------------------------------------------------|
D|-----------------------------------------------------------------------|
A|-----------------------------------------------------------------------|
E|-----------------------------------------------------------------------|

e|-14b-12--------------14-12------------------------14-12----------------|
B|--------14-12--------------14-12-------12fb-12r-%-------14-12----------|
G|--------------14-11-%------------14-11------------------------14-11----|
D|-----------------------------------------------------------------------|
A|-----------------------------------------------------------------------|
E|-----------------------------------------------------------------------|

bridge 2: x3        * * * * * *
e|------------------------------|
B|-4-4-4-4-4-4-4----------------|
G|-4-4-4-4-4-4-4--4-4-4-4-4-4-4-|
D|-4-4-4-4-4-4-4--2-2-2-2-2-2-2-|
A|-2-2-2-2-2-2-2----------------|
E|------------------------------|

outro:
e|----------------|
B|------------2~~-|
G|------------2~~-|
D|------------2~~-|
A|-2-3-4-5-6--0~~-|
E|-0-1-2-3-4------|
   ^ ^ ^
song structure:
intro (clean)
chorus
fill
chorus
verse 1
verse 2
chorus
fill
chorus
verse 1
verse 2
fill
chorus
fill
chorus
solo
bridge 1
bridge 2
chorus
outro
Comments