Vandals - Pirates Life Chords & Tabs

 

Pirates Life Chords & Tabs

Vandals Chords & Tabs

Version: 2 Type: Tab 0 ratings
1 star 2 stars 3 stars 4 stars 5 stars
comments

Pirates Life Tab

VERSE/MAIN RIFF: 
e|---------------------------------------------------------------------------| 
B|---------------------------------------------------------------------------| 
G|-----------------5-7-5------------------10-10-9-7--------------------------| 
D|-7--7-7-7-7-7-7--5-7-5--7--7-7-7-7-7-7--10-10-9-7--------------------------| 
A|-7--7-7-7-7-7-7--3-5-3--7--7-7-7-7-7-7---8--8-7-5--------------------------| 
E|-5--5-5-5-5-5-5---------5--5-5-5-5-5-5-------------------------------------| 

CHORUS: 
e|---------------------------------------------------------------------------| 
B|---------------------------------------------------------------------------| 
G|---------------------------------------------------------------------------| 
D|-9-9-9-9-9-9-9-9--6-6-6-6-6-6-6-6--4-4-4-4-4-4-4-4--4-4-4-4-4-4-4-4--------| 
A|-9-9-9-9-9-9-9-9--6-6-6-6-6-6-6-6--4-4-4-4-4-4-4-4--4-4-4-4-4-4-4-4--------| 
E|-7-7-7-7-7-7-7-7--4-4-4-4-4-4-4-4--2-2-2-2-2-2-2-2--2-2-2-2-2-2-2-2--------| 

BRIDGE: 
rhythm not entirely tabbed out (its not that hard, though) 
[ Tab from: http://www.guitartabs.cc/tabs/v/vandals/pirates_life_tab_ver_2.html ]
NOTE: use upstrokes on this part 
e|---------------------------------------------------------------------------| 
B|---------------------------------------------------------------------------| 
G|-7--7--7--7----9--9--9--9----8--8----5--5----6--6----8---------------------| 
D|-7--7--7--7----9--9--9--9----8--8----5--5----6--6----8---------------------| 
A|-5--5--5--5----7--7--7--7----6--6----3--3----4--4----6---------------------| 
E|---------------------------------------------------------------------------| 

ENDING: 
e|---------------------------------------------------------------------------| 
B|---------------------------------------------------------------------------| 
G|-10-10-9-7--10-10-9-7--10-10-9-7-------------------------------------------| 
D|-10-10-9-7--10-10-9-7--10-10-9-7--7----------------------------------------| 
A|--8--8-7-5---8--8-7-5---8--8-7-5--7----------------------------------------| 
E|----------------------------------5----------------------------------------| 

This is more or less a tab for the Sweatin' To The Oldies version, and not the 
Peace Thru Vandalism version. There's not a huge difference, though. This is 
100% accurate, with the possible exception of the bridge.
Comments