Vandals - Oi To The World Chords & Tabs

 

Oi To The World Chords & Tabs

Vandals Chords & Tabs

Version: 3 Type: Bass Tab 0 ratings
1 star 2 stars 3 stars 4 stars 5 stars
comments

Oi To The World Bass Tab

Intro 
G|----------------------|--------------------------------------|
D|----------------------|--------------------------------------|
A|/0>-----4>----5>---7>-|0>-4>-5>-77---------------------------|
E|----------------------|--------------------------------------|
[ Tab from: http://www.guitartabs.cc/tabs/v/vandals/oi_to_the_world_btab_ver_3.html ]
G|------------------------------------------------------------|
D|------------------------------------------------------------|
A|0>-4>-5>-7>-x2----------------------5-4444-55-22-00000------|
E|----------------5555-44-22-000-2-0--------------------------|
Verse
G|------------------------------------------------------------|
D|------------------------------------------------------------|
A|0>-4>-5>-7>-x3---4444-55-22-00000---------------------------|
E|------------------------------------------------------------|
Chorus
G|------------------------------------------------------------|
D|------------------------------------------------------------|
A|55555555-77777777--------------------44444444-55555555------|
E|------------------5555-4422-00020000------------------------|

G|------------------------------------------------------------|
D|------------------------------------------------------------|
A|4444-5522-00000---------------------------------------------|
E|------------------------------------------------------------|
Comments