Vandals - Mohawk Town Chords & Tabs

 

Mohawk Town Chords & Tabs

Vandals Chords & Tabs

Version: 1 Type: Tab 0 ratings
1 star 2 stars 3 stars 4 stars 5 stars
comments

Mohawk Town Tab

   
INTRO
e-0---0---0---0-----------------------------------------------------|
B-0---1---3---1---0-------------------------------------------------|
G-2---2---2---2---1-------------------------------------------------|
D-2---2---2---2---2-------------------------------------------------|
A-0---0---0---0---2-------------------------------------------------|
E-----------------0-------------------------------------------------|

GUITAR Throughout (palm-muted in some parts of the song)
e-0--000--000--000--000--000--000--000------------------------------|
B-0--111--000--111--000--111--000--333------------------------------|
G-2--222--222--222--222--222--222--222------------------------------|
D-2--222--222--222--222--222--222--222------------------------------|
A-0--000--000--000--000--000--000--000------------------------------|
E-------------------------------------------------------------------|

e-0--000--000--000--000--000--000-------------------------------------|
B-0--111--000--111--000--111--000--0-0--------------------------------|
G-2--222--222--222--222--222--222--0-1--------------------------------|
D-2--222--222--222--222--222--222--0-2--------------------------------|
A-0--000--000--000--000--000--000--0-2--------------------------------|
E------------------------------------0--------------------------------|
[ Tab from: http://www.guitartabs.cc/tabs/v/vandals/mohawk_town_tab.html ]
BASS goes something like B C B C B CB\DDD
B C B C B CB G

SOLO (on the live CD)
e---------------------------------------------------------------------|
B---------------------------------------------------------------------|
G--------------------------------------------------------22-00-2-0----|
D----------------------------------------0-2-222---2--22-----------2--|
A-0-000-2-3-333-0----------0-000-2-3-333---------3--------------------|
E-----------------333-0-3---------------------------------------------|
.. .. . . .
A.H.
e---------------------------------------------------------------------|
B---------------------------------------------------------------------|
G-00-2-0---0-2-0------------------------------------------------------|
D--------2------------------------------------------------------------|
A----------------0-00h3~~b~~-3-2-0------------------------------------|
E----------------------------------3-0--------------------------------|
A.H. . . . . . . use whammy bar to make effects

h=hammer on
~~b~~=bend back and forth with virbrato
A.H.= Artifical Harmonics


After the solo I think there is this part where he plays the chords
C (x355xx) and Evii(x799xx) back and forth while the chorus is played
again. But I don't have the CD infront of me
Comments