Vandals - Ive Got An Ape Drape Chords & Tabs

 

Ive Got An Ape Drape Chords & Tabs

Vandals Chords & Tabs

Version: 2 Type: Tab 0 ratings
1 star 2 stars 3 stars 4 stars 5 stars
comments

Ive Got An Ape Drape Tab

   
Vandals - I've Got An Ape Drape
Submitted By: Jason Lee
EMail: loser_guitarist@hotmail.com
album: Hitler Bad, Vandals Good

this is the real part, i know because i figured it out
along with the song so it's most definitely right

for the two A chords, just play whichever is easier

the chords:
   C   G   A or A   D   E   B   F
E:-------------------------------------------------
B:-------------------------------------------------
G:-5------------2---7---9---4---10-----------------
D:-5---5---7----2---7---9---4---10-----------------
A:-3---5---7----0---5---7---2---8------------------
E:-----3---5---------------------------------------

riff 1:
E:-----------------|----------------|--------|--------|
B:-----------------|----------------|--------|--------|
G:-5---5---5---9---|10--10--9---5---|7-------|--------|
D:-x---x---x---x---|x---x---x---x---|x-------|5-------|
A:-3---3---3---7---|8---8---7---3---|5-------|x-------|
E:-----------------|----------------|--------|3-------|
   1 + 2 + 3 + 4 + |1 + 2 + 3 + 4 + |1 2 3 4 |1 2 3 4 |

intro/chorus:
C    |G A G |C    |D E D |G    | B   |B B B B|A B C |

verse (palm muted):
C    |E     |F    |E     | riff 1 |
stop palm muting
C    |E     |F    |E     |F  C  |E  B  |F C E B|C   |

bridge:
E:----------------|----------------|----------------|
B:----------------|----------------|----------------|
G:----------------|----------------|-----2-3-5-3-2--|
D:-----2-3-5-3-2--|-----2-3-5-3-2--|-3-5------------|
A:-3-5------------|-3-5------------|----------------|
E:----------------|----------------|----------------|

E:----------------|----------------|----------------|
B:----------------|----------------|----------------|
G:----------------|----------------|----------------|
D:-----2-3-5-3-2--|----------------|-----2-3-5-3-2--|
A:-3-5------------|-----2-3-5-3-2--|-3-5------------|
E:----------------|-3-5------------|----------------|
[ Tab from: http://www.guitartabs.cc/tabs/v/vandals/ive_got_an_ape_drape_tab_ver_2.html ]
E:----------------|----------------|----------------|----------------|
B:----------------|----------------|----------------|----------------|
G:----------------|----------------|----------------|----------------|
D:-5-2-3-2---2-3-2|-5-2-3-2---2-3-2|-----0-2-0-0----|-----0-2-0-0----|
A:---------5------|---------5------|-3-3---------3-0|-3-3---------3-0|
E:----------------|----------------|----------------|----------------|

and that's the song!

tabbed out 10/30/by =jl=
===========I'VE GOT AN APE DRAPE - Vandals

By: Brian Jipson
    Jipson19@cs.com

* = strike chord 8 times
+ = strike chord 4 times
 
				Chorus/Intro 
e|---------------------------------------------------------------------------|
B|---------------------------------------------------------------------------|
G|-5*---------5*--9-9-7----------4--4*-2-4-5---------------------------------|
D|-5*--7-7-5--5*--9-9-7--5*--5-5-4--4*-2-4-5---------------------------------|
A|-3*--7-7-5--3*--7-7-5--5*--5-5-2--2*-0-2-3---------------------------------|
E|-----5-5-3-------------3*--3-3---------------------------------------------|

                                Verse
e|---------------------------------------------------------------------------|
B|---------------------------------------------------------------------------|
G|-5*-9*-10*-9*-5*-9*-7*----5*-9*-10*-9*-10+-7+-9+-5+-10+-9-7-5--------------|
D|-5*-9*-10*-9*-5*-9*-7*-5*-5*-9*-10*-9*-10+-7+-9+-5+-10+-9-7-5--------------|
A|-3*-7*--8*-7*-3*-7*-5*-5*-3*-7*--8*-7*--8+-5+-7+-3+--8+-7-5-3--------------|
E|-----------------------3*--------------------------------------------------|

                               Bridge(each chord is held) 
e|---------------------------------------------------------------------------|
B|---------------------------------------------------------------------------|
G|-5-5-10-5---5---5----------------------------------------------------------|
D|-5-5-10-5-5-5-5-5----------------------------------------------------------|
A|-3-3--8-3-5-3-5-3----------------------------------------------------------|
E|----------3---3------------------------------------------------------------|


==================================================================

I'VE GOT AN APE DRAPE - The Vandals 

By: Jeremy Locarni 

intro 
e|---------------------------------------------------------- 
B|---------------------------------------------------------- 
G|-5-------5-7-9-7---------4-2-4-5-------------------------- 
D|-5-7-9-5-5-7-9-7-5-2-5-7-4-2-4-5-------------------------- 
A|-3-7-9-5-3-5-7-5-5-2-5-7-2-0-2-3-------------------------- 
E|---5-7-3---------3-0-3-5----------------------------------
Comments