Vandals - Ive Got An Ape Drape Chords & Tabs

 

Ive Got An Ape Drape Chords & Tabs

Vandals Chords & Tabs

Version: 1 Type: Tab 0 ratings
1 star 2 stars 3 stars 4 stars 5 stars
comments

Ive Got An Ape Drape Tab

Any Problems Email Me At: BREAD@PUNKHARDCORE.NET

* = strike chord 8 times 
+ = strike chord 4 times 

Chorus/Intro 
e|---------------------------------------------------------------------------| 
B|---------------------------------------------------------------------------| 
G|-5*---------5*--9-9-7----------4--4*-2-4-5---------------------------------| 
D|-5*--7-7-5--5*--9-9-7--5*--5-5-4--4*-2-4-5---------------------------------| 
A|-3*--7-7-5--3*--7-7-5--5*--5-5-2--2*-0-2-3---------------------------------| 
E|-----5-5-3-------------3*--3-3---------------------------------------------| 
[ Tab from: http://www.guitartabs.cc/tabs/v/vandals/ive_got_an_ape_drape_tab.html ]
Verse 
e|---------------------------------------------------------------------------| 
B|---------------------------------------------------------------------------| 
G|-5*-9*-10*-9*-5*-9*-7*----5*-9*-10*-9*-10+-7+-9+-5+-10+-9-7-5--------------| 
D|-5*-9*-10*-9*-5*-9*-7*-5*-5*-9*-10*-9*-10+-7+-9+-5+-10+-9-7-5--------------| 
A|-3*-7*--8*-7*-3*-7*-5*-5*-3*-7*--8*-7*--8+-5+-7+-3+--8+-7-5-3--------------| 
E|-----------------------3*--------------------------------------------------| 

Bridge(each chord is held) 
e|---------------------------------------------------------------------------| 
B|---------------------------------------------------------------------------| 
G|-5-5-10-5---5---5----------------------------------------------------------| 
D|-5-5-10-5-5-5-5-5----------------------------------------------------------| 
A|-3-3--8-3-5-3-5-3----------------------------------------------------------| 
E|----------3---3------------------------------------------------------------| 

Structure: 
Chorus 
Verse 
Chorus 
Verse 
Chorus 
Chorus w/bass solo 
Bridge 
Chorus 
Verse 
Chorus(repeat till you feel you've driven the point in) 
Comments