Vandals - Its A Fact Chords & Tabs

 

Its A Fact Chords & Tabs

Vandals Chords & Tabs

Version: 1 Type: Tab 0 ratings
1 star 2 stars 3 stars 4 stars 5 stars
comments

Its A Fact Tab

                           VANDALS
                         ITS A FACT


STANDARD TUNING
EADGBe


------------------------|
------------------------|
-10-10---------10-10-10-|
-10-10--10-10--10-10-10-|
--8--8--10-10---8--8--8-|
---------8--8-----------|


---------------------------|
---------------------------|
-11-11-11------------------|
-11-11-11--11-11-11--8-8-8-|
--9--9--9--11-11-11--8-8-8-|
------------9--9--9--6-6-6-|

[ Tab from: http://www.guitartabs.cc/tabs/v/vandals/its_a_fact_tab.html ]
chorus
-------------------------------------|
-------------------------------------|
-----------10-10-10------------------|
-10-10-10--10-10-10--8-8-8--10-10-10-|
-10-10-10---8--8--8--8-8-8--10-10-10-|
--8--8--8------------6-6-6---8--8--8-|


----------------------------------------------------------------------|
----------------------------------------------------------------------|
-10--12--13--14-14---------12---------(8-8-8--7-7)----8-8-8--10-10-10-|
-10--12--13--14-14--12-12--12--10-10--(8-8-8--7-7)-x2-8-8-8--10-10-10-|
--8--10--11--12-12--12-12--10--10-10--(6-6-6--5-5)----6-6-6---8--8--8-|
--------------------10-10-------8--8----------------------------------|

thats pretty much it
ther is a pretty cool solo with some good effects on it later on
peace
Comments