Vandals - Its A Fact Chords & Tabs

 

Its A Fact Chords & Tabs

Vandals Chords & Tabs

Version: 1 Type: Bass Tab 0 ratings
1 star 2 stars 3 stars 4 stars 5 stars
comments

Its A Fact Bass Tab

-----------------------------------------------------------------------------
                       IT'S A FACT        VANDELS
-----------------------------------------------------------------------------
PROVIDED BY:
t_o_m_1_2_3_@hotmail.com                       >Means strum
FOR THE PUNK BASS PAGE
www.geocities.com/SunsetStrip/Backstage/1711
[ Tab from: http://www.guitartabs.cc/tabs/v/vandals/its_a_fact_btab.html ]
INTRO & PRE-VERSE                        
G]---------------------------------------]
D]-3>---3>-----3>---3>-----3>---3>-----3-]
A]----3----3-3----3----3-3----3----3-3---]
E]---------------------------------------]

VERSE
G]----------]
D]-3>-------]
A]----0>-1>-]
E]----------]

CHORUS
G]---------------]
D]----3>---------]
A]-3>----1>-2-3>-]
E]---------------]

INTRO & PRE-VERSE
VERSE x4
CHORUS
INTRO & PRE-VERSE

BRIDGE
G]---------------------------------------]
D]-3-5-6-7>----5>------------------------]
A]----------5>----3>-6>-5>-6>-5>-6>-7-8>-]
E]---------------------------------------]
 
VERSE x4
CHORUS
INTRO & PRE-VERSE
END




Comments