Vandals - If The Government Could Read My Mind Chords & Tabs

 

If The Government Could Read My Mind Chords & Tabs

Vandals Chords & Tabs

Version: 1 Type: Tab 0 ratings
1 star 2 stars 3 stars 4 stars 5 stars
comments

If The Government Could Read My Mind Tab

   
THE VANDALS-IF THE GOVERNMENT COULD READ MY MIND

intro 
e|------------------------------------------------ 
B|------------------------------------------------ 
G|------------------------------------------------ 
D|------------------------------------------------ 
A|-3--2-3-2-3/6-5--5-6-5-6/10-9--2-3-2-3/6------3- 
E|------------------------------------------------ 

verse part 1
e|--------------------------------- 
B|--------------------------------- 
G|-9-9-9-9-9-9-9-9----------------- 
D|-9-9-9-9-9-9-9-9-9-9-9-9-9-9-9-9- 
A|-7-7-7-7-7-7-7-7-9-9-9-9-9-9-9-9- 
E|-----------------7-7-7-7-7-7-7-7- x2 

part 2 
e|---------------------------------------------------------------- 
B|---------------------------------------------------------------- 
G|-9-9-9-9-9-9-9-9------------------------------------------------ 
D|-9-9-9-9-9-9-9-9-1111111111111111-8/9-9-9-9-9-9-9-8/9-9-9-9-9-9- 
A|-7-7-7-7-7-7-7-7-1111111111111111-8/9-9-9-9-9-9-9-8/9-9-9-9-9-9- 
E|-----------------9-9-9-9-9-9-9-9--6/7-7-7-7-7-7-7-6/7-7-7-7-7-7- 

part 3 
e|--------------------------------------------------------------- 
B|--------------------------------------------------------------- 
G|-9-9-9-9-9-9-------------9-9-9-9-9-9-------------9-9-9-9-9-9-9- 
D|-9-9-9-9-9-9-9-9-9-9-9-9-9-9-9-9-9-9-9-9-9-9-9-9-9-9-9-9-9-9-9- 
A|-7-7-7-7-7-7-7-9-9-9-9-9-9-7-7-7-7-7-7-9-9-9-9-9-9-7-7-7-7-7-7- 
E|-------------7-7-7-7-7-7-------------7-7-7-7-7-7--------------- 
[ Tab from: http://www.guitartabs.cc/tabs/v/vandals/if_the_government_could_read_my_mind_tab.html ]
e|-------------------------------------------------- 
B|-------------------------------------------------- 
G|-------------------------------------------------- 
D|-1111111111111111-8/9-9-9-9-9-9-9-8/9-9-9-9-9-9-9- 
A|-1111111111111111-8/9-9-9-9-9-9-9-8/9-9-9-9-9-9-9- 
E|-9-9-9-9-9-9-9-9--6/7-7-7-7-7-7-7-6/7-7-7-7-7-7-7- 

chorus 
e|--------------------------------------------------------------- 
B|--------------------------------------------------------------- 
G|-9-9-9-9-9-9-9-9---------------------------9------------------- 
D|-9-9-9-9-9-9-9-9-1111111111111111-9--------9--------11-------9- 
A|-7-7-7-7-7-7-7-7-1111111111111111-9--------7--------11-------9- 
E|-----------------9-9-9-9-9-9-9-9--7-----------------9--------7- 

verse (play part 1 only once) 

chorus 

solo 
e|--------------------------------------------- 
B|-4h5p4h5p4-7-4h5p4h5p4---4h5p4h5p4-7-5-4----- 
G|-----------------------6-----------------6-4- 
D|--------------------------------------------- 
A|--------------------------------------------- 
E|--------------------------------------------- 

verse (play part 1 only once) 

chorus 2 
e-----------------------------------------------------------------
B|---------------------------------------------------------------- 
G|-9-9-9-9-9-9-9-9------------------------------------------------ 
D|-9-9-9-9-9-9-9-9-1111111111111111-9-9-9-9-9-9-9-9-9-9-9-9-9-9-9- 
A|-7-7-7-7-7-7-7-7-1111111111111111-9-9-9-9-9-9-9-9-9-9-9-9-9-9-9- 
E|-----------------9-9-9-9-9-9-9-9--7-7-7-7-7-7-7-7-7-7-7-7-7-7-77 

e|---------------------------------------- 
B|---------------------------------------- 
G|-9-------------9-----------9------------ 
D|-9-----11------9-----11----9----11----9- 
A|-7-----11------7-----11----7----11----9- 
E|-------9-------------9----------9-----7-
Comments