Vandals - Idea For A Movie Chords & Tabs

 

Idea For A Movie Chords & Tabs

Vandals Chords & Tabs

Version: 4 Type: Tab 0 ratings
1 star 2 stars 3 stars 4 stars 5 stars
comments

Idea For A Movie Tab

   
ong - An Idea For A Movie
Band - The Vandals
Tabbed by Darren King (fat_mike_for_presldent@hotmail.com)

Intro (part one)

 pm..    pm..    pm..    pm..    pm..    pm..    pm..    pm..
e-----------------------------------------------------------------|
B-----------------------------------------------------------------|
G-------------------------6-6--6--7-7--7--9-9--9------------------|
D-7-7--7--2-2--2--4-4--4--6-6--6--7-7--7--9-9--9--7-7--7--7-7--7--|
A-7-7--7--2-2--2--4-4--4--4-4--4--5-5--5--7-7--7--7-7--7--7-7--7--|
E-5-5--5--0-0--0--2-2--2--------------------------5-5--5--5-5--5--|

  Intro (part two)(this bit is played under the solo)

G-------------------6-6-6-7-7-7-9-9-9-----------------|
D-7-7-7-2-2-2-4-4-4-6-6-6-7-7-7-9-9-9-7-7-7-7-7-7-7-7-|
A-7-7-7-2-2-2-4-4-4-4-4-4-5-5-5-7-7-7-7-7-7-7-7-7-7-7-|
E-5-5-5-0-0-0-2-2-2-------------------5-5-5-5-5-5-5-5-|

Solo (part one)

e------------------------------------------------------------------|
B-------14-h-15-14-h-15-14----15-p-14-h-15-17-15-14----------------|
G-14-----------------------14-----------------------16-14-------14-|
D----14---------------------------------------------------14-14----|
A------------------------------------------------------------------|
E------------------------------------------------------------------|

Solo (part two)

e---------------------------------|
B----------------15-14------------|
G-14----14-16-18-------16-16-b-14-|
D----14---------------------------|
A---------------------------------|
E---------------------------------|

Verse (same as intro part one)

Pre Chorus (...and they go on adventures...)

G-7-7-7-7-7-7-7-7-9-9-9-9-9-9-9-9---------------7-7-7-7-7-7-7-7-9-9-9-9-9-9-9-9-|
D-7-7-7-7-7-7-7-7-9-9-9-9-9-9-9-9--4-4-4-2-3-4--7-7-7-7-7-7-7-7-9-9-9-9-9-9-9-9-|
A-5-5-5-5-5-5-5-5-7-7-7-7-7-7-7-7--4-4-4-2-3-4--5-5-5-5-5-5-5-5-7-7-7-7-7-7-7-7-|
E----------------------------------2-2-2-0-1-2----------------------------------|
[ Tab from: http://www.guitartabs.cc/tabs/v/vandals/idea_for_a_movie_tab_ver_4.html ]
Chorus (...put a happy ending there...)

 pm................................................................
G----------------------------------6-6-6-6-6-6-6-6-7-7-7-7-7-7-7-7-|
D-7-7-7-7-7-7-7-7--5-5-5-5-5-5-5-5-6-6-6-6-6-6-6-6-7-7-7-7-7-7-7-7-|
A-7-7-7-7-7-7-7-7--5-5-5-5-5-5-5-5-4-4-4-4-4-4-4-4-5-5-5-5-5-5-5-5-|
E-5-5-5-5-5-5-5-5--3-3-3-3-3-3-3-3---------------------------------|

Bridge (i forgot one thing about the guy...)

G----------------------------------9-9-9-9-9-9-9-9-9-9-9-9-9-9-9-9-|
D-7-7-7-7-7-7-7-7-7-7-7-7-7-7-7-7--9-9-9-9-9-9-9-9-9-9-9-9-9-9-9-9-|
A-7-7-7-7-7-7-7-7-7-7-7-7-7-7-7-7--7-7-7-7-7-7-7-7-7-7-7-7-7-7-7-7-|
E-5-5-5-5-5-5-5-5-5-5-5-5-5-5-5-5----------------------------------|

Fucked Solo

e-------------------------21-------------------------|
B----------------------------17-------17-14----------|
G-14----------------------------------------14----14-|
D----14----------------------------------------14----|
A--------14-s-16-14-12-12-------12-12----------------|
E----------------------------------------------------|

Order Of Song:

Rhythm Guitar             Lead Guitar

Intro (part one) x1       Intro (part one) x1
Intro (part two) x2       Solo (part one) x1
Verse x2                  Solo (part two) x1
Pre Chorus x1             Verse x2
Chorus x2                 Pre Chorus x1
Intro (part two) x1       Chorus x2
Verse x4                  Verse x4
Pre Chorus x1             Pre Chorus x1
Chorus x4                 Chorus x4
Bridge x4                 Bridge x4
                          Fucked Solo x1
Pre Chorus x1             Pre Chorus x1
Chorus x4                 Chorus x4
Intro (part one) x2       Solo (part one)
                          Solo (part two)

That's it. The solo is a bit different at the end but the regular one is almost identical.
If you have any comments just e-mail me (fat_mike_for_presldent@hotmail.com) if your wondering
my e-mail doesnt say president it says presldent (instead of an i its a lower case L)
Comments