Vandals - Idea For A Movie Chords & Tabs

 

Idea For A Movie Chords & Tabs

Vandals Chords & Tabs

Version: 1 Type: Tab 0 ratings
1 star 2 stars 3 stars 4 stars 5 stars
comments

Idea For A Movie Tab

------------------------------------------------------------------------------- 
                          IDEA FOR A MOVIE - The Vandals 
------------------------------------------------------------------------------- 

By:Mike  email:My-III-Sons@msn.com 

Intro:  
e|--------------------------------------------------| 
B|--------------------------------------------------| 
G|--pm----pm----pm----pm-6--pm-7--pm-9--pm----pm----| 
D|-----7-----2-----4-----6-----7-----9-----7-----7--| 
A|-----7-----2-----4--44-4--55-5--77-7-----7-----7--| 
E|--55-5--00-0--22-2--------------------55-5--55-5--| 

e|---------------h--p------------------------------------| 
B|---------15b-14-15-14---15-14-15-17-15-14--------------| 
G|--14--------------------------------------16-14--------| 
D|-----14-----------------------------------------14-----| 
A|-------------------------------------------------------| 
E|---------------------------------------------------12--| 

e|--------------------------------------| 
B|-------------------15-14--------------| 
G|--14----14-16-16b--------16b-16b-14---| 
D|-----14-------------------------------| 
A|--------------------------------------| 
E|--------------------------------------| 
[ Tab from: http://www.guitartabs.cc/tabs/v/vandals/idea_for_a_movie_tab.html ]
Verse: 
e|--------------------------------------------------| 
B|--------------------------------------------------| 
G|--pm----pm----pm----pm-6--pm-7--pm-9--pm----pm----| 
D|-----7-----2-----4-----6-----7-----9-----7-----7--| 
A|-----7-----2-----4--44-4--55-5--77-7-----7-----7--| 
E|--55-5--00-0--22-2--------------------55-5--55-5--| 

Pre-chorus: ....and they go on adventures... 
e|------------------------------------------------| 
B|------------------------------------------------| 
G|--77777777-99999999-----------77777777-99999999-| 
D|--77777777-99999999-444-2-3-4-77777777-99999999-| 
A|--55555555-77777777-444-2-3-4-55555555-77777777-| 
E|--------------------222-0-1-2-------------------| 

Chorus: ...put a happy ending.....(palm mute whole thing) 
e|----------------------------------------| 
B|----------------------------------------| 
G|--------------------66666666-77777777---| 
D|--77777777-55555555-66666666-77777777---| 
A|--77777777-55555555-44444444-55555555---| 
E|--55555555-33333333---------------------| 

Bridge: ...and i forgot one thing... 
e|--------------------------------------| 
B|--------------------------------------| 
G|-7777777777777777---------------------| 
D|-7777777777777777-9999999999999999----| 
A|-5555555555555555-9999999999999999----| 
E|------------------7777777777777777----| 

=============================================================================== 




Comments