Vandals - Eurobarge Chords & Tabs

 

Eurobarge Chords & Tabs

Vandals Chords & Tabs

Version: 1 Type: Tab 0 ratings
1 star 2 stars 3 stars 4 stars 5 stars
comments

Eurobarge Tab

-------------------------------------------------------------------------------
			     Eurobarge - The Vandals
-------------------------------------------------------------------------------

Tabbed by:Zman
Email:IHave Imed U@aol.com

Tuning:standard

e|---------------------------------------------------------------------------|
B|---------------------------------------------------------------------------|
G|--9-----9-----9--------7---8-----------------------------------------------|
D|--9--5--9--5--9--5-----7---8-----------------------------------------------|
A|--7--5--7--5--7--5-----5---6-----------------------------------------------|
E|-----3-----3-----3----------------(x2)-------------------------------------|
    Then Do
e|---------------------------------------------------------------------------|
B|---------------------------------------------------------------------------|
G|------------7--9--7--------------7--9--7--------------7--9--7--------7-----|
D|---9--6--9--7--9--7----9--6--9---7--9--7----9--6--9---7--9--7----5---7-----|
A|---9--6--9--5--7--5----9--6--9---5--7--5----9--6--9---5--7--5----5---5-----|
E|---7--4--7-------------7--4--7--------------7--4--7--------------3---------|
[ Tab from: http://www.guitartabs.cc/tabs/v/vandals/eurobarge_tab.html ]
e|---------------------------------------------------------------------------|
B|---------------------------------------------------------------------------|
G|--4-4-4-4------------------------------------------------------------------|
D|--4-4-4-4------------------------------------------------------------------|
A|--2-2-2-2------------------------------------------------------------------|
E|-----------3-2-3--(x4)-----------------------------------------------------|

     Then  go back to the first part and start all over again but only do the
first part 1 time not two.  Then do this all over again until you reach this...
e|---------------------------------------------------------------------------|
B|---------------------------------------------------------------------------|
G|----5---------------------------------------5------------------------------|
D|----5---------7---------9----------5--------5---------7--------9--12--14---|
A|----3--(x8)---7---------9----------5--------3--(x8)---7--------9--12--14---|
E|--------------5--(x8)---7--(x8)----3--(x8)------------5--(x8)--7--10--12---|

Then go back to the part with the four-six power chord part and that ends the
song.  If you have corrections email me.  Have fun with this song.  Bung!!!!!
Comments