Vandals - Come Out Fighting Chords & Tabs

 

Come Out Fighting Chords & Tabs

Vandals Chords & Tabs

Version: 1 Type: Tab 0 ratings
1 star 2 stars 3 stars 4 stars 5 stars
comments

Come Out Fighting Tab

   
intro
e|--------------|
b|--------------|
g|--222-22-2-2-2|
d|--222-22-2-2-2|   play 4x and at the end slide down
a|--000-00-0-0-0|
e|--------------|
    AAA AA A A A

verse x2(voices...)
e|---------------------------------------------------|
b|---------------------------------------------------|
g|--222-22-2-2-2--9999-77779-222-22-2-2-2--9999------|
d|--222-22-2-2-2--9999-77779-222-22-2-2-2--9999-5555-|
a|--000-00-0-0-0--7777-55557-000-00-0-0-0--7777-5555-| 
e|----------------------------------------------3333-|
[ Tab from: http://www.guitartabs.cc/tabs/v/vandals/come_out_fighting_tab.html ]
pre-chorus x2 (well i know......)h-hammer on
e|---0--------------0------------|
b|---0--------------0------------|
g|---1---2------2---1---2--------|
d|-2-----2-7777-2-2-----2-7777-9-|
a|-2-----0-5454-0-2-----0-5454-7-|
e|-0--3h4---------0--3h4---------|
   E     A

chorus
e|--------|
b|--------|
g|-222----|  then play verse palm-muted, pre-chorus, and chorus
d|-222----|
a|-000----|
e|--------|

verse2 x4 (ohh...all alone...) (play only the last time) /-slide *-play 16x
e|----------------0-----|
b|----------------0-----|
g|--222-22--------1-(2*)|
d|--222-22-4/5--5-2-(2-)|  then play verse, prechorus, chorus
a|--000-00-2/35-3-2-(0-)|
e|------------3---0-----|

outro (.....warning u.....)*play 7x #play 6x
e|------------------------------|
b|------------------------------|
g|--2#------2#------2*---2#---2-|
d|--2---7#--2-------2--7#2----2-|
a|--0---5---0---5#--0--5-0--550-|
e|--------------3-----------33--|

have fun 
tabbed by tim robaczewski
Comments