Vandals - Anarchy Burger Chords & Tabs

 

Anarchy Burger Chords & Tabs

Vandals Chords & Tabs

Version: 1 Type: Tab 0 ratings
1 star 2 stars 3 stars 4 stars 5 stars
comments

Anarchy Burger Tab

song: anarchy burger(hold the government)
by: vandals

~ means ring

bass intro

intro/chorus
E---------------------------|
B---------------------------|
G---------------------------|
D--7-777-7-777--------------|
A--5-555-5-555-7-777-7-777--|
E--------------5-555-5-555--|

verse
E--------------------|
B--------------------|
G--------------------|
D--------------------|
A--7~~~~~~~~~~~~~~~--
E--5~~~~~~~~~~~~~~~--
[ Tab from: http://www.guitartabs.cc/tabs/v/vandals/anarchy_burger_tab.html ]
bridge
E---------------------------------------------------------------------|
B---------------------------------------------------------------------|
G---------------------------------------------------------------------|
D--77--77----------77--77----------99--99--77--77---------------------|
A--55--55--77--77--55--55--77--77--77--77--55--55--7-777777-7-777777--|
E----------55--55----------55--55------------------5-555555-5-555555--|

timing:
bass intro....1x
intro/chorus..2x
verse.........2x
intro/chorus..2x
verse.........2x
intro/chorus..2x
verse.........2x
intro/chorus..2x
bridge........1x
solo..........?
intro/chorus..2x
verse.........2x
intro/chorus..2x

i dont know the solo thats the only problem. and i might have messed up some of the 
after the solo. listen to the song and figure it out, im too lazy to.
Comments