Vandals - An Idea For A Movie Chords & Tabs

 

An Idea For A Movie Chords & Tabs

Vandals Chords & Tabs

Version: 1 Type: Bass Tab 0 ratings
1 star 2 stars 3 stars 4 stars 5 stars
comments

An Idea For A Movie Bass Tab

The Vandals - An Idea For A Movie
Standard Tuning

Intro(4x)
G |-----------------------------------------------------------------------------
D |-------------------------------------0--0--0--2--2--2------------------------
A |-0--0--0--------------------4--4--4-------------------0--0--0--0--0--0--0----
E |----------0--0--0--2--2--2---------------------------------------------------

Verse(1x)
G |-----------------------------------------------------------------------------
D |-0--0--0--0--0--2--2--2--2--2------------------------------------------------
A |----------------------------------------------4--4--4--4--4--4---------------
E |-----------------------------2--2--2--2--2--2--------------------------------

G |-----------------------------------------------------------------------------
D |-0--0--0--0--0--0--2--2--2--2--2--2------------------------------------------
A |-----------------------------------------------------------------------------
E |-----------------------------------------------------------------------------

Chorus(2x)
G |-----------------------------------------------------------------------------
D |-----------------------------------------------------------------------------
A |-----------------------------------4--4--4--4--4--4--5--5--5--5--5--5--------
E |-5--5--5--5--5--5--4--4--4--4--4--4------------------------------------------

Intro(4x)
G |-----------------------------------------------------------------------------
D |------------------------------------0--0--0--2--2--2-------------------------
A |-0--0--0--------------------4--4--4-----------------0--0--0--0--0--0---------
E |----------0--0--0--2--2--2---------------------------------------------------

Verse(1x)
G |-----------------------------------------------------------------------------
D |-0--0--0--0--0--2--2--2--2--2------------------------------------------------
A |-----------------------------------------------4--4--4--4--4--4--------------
E |------------------------------2--2--2--2--2--2-------------------------------

G |-----------------------------------------------------------------------------
D |-0--0--0--0--0--0--2--2--2--2--2--2------------------------------------------
A |-----------------------------------------------------------------------------
E |-----------------------------------------------------------------------------
[ Tab from: http://www.guitartabs.cc/tabs/v/vandals/an_idea_for_a_movie_btab.html ]
Chorus(4x)
G |-----------------------------------------------------------------------------
D |-----------------------------------------------------------------------------
A |------------------------------------4--4--4--4--4--4--5--5--5--5--5--5-------
E |-5--5--5--5--5--5--4--4--4--4--4--4------------------------------------------

Bridge(2x)
G |-----------------------------------------------------------------------------
D |---------------------------------0--0--0--0--0--0--0--0--0--0----------------
A |-2--2--2--2--2--2--2--2--2--2--2---------------------------------------------
E |-----------------------------------------------------------------------------

G |-----------------------------------------------------------------------------
D |------------------------------2--2--2--2--2--2--2--2--2--2-------------------
A |-2--2--2--2--2--2--2--2--2--2------------------------------------------------
E |-----------------------------------------------------------------------------

Intro(2x)
G |-----------------------------------------------------------------------------
D |----------------------------------0--0--0--2--2--2---------------------------
A |-0--0--0------------------4--4--4------------------0--0--0--0--0--0----------
E |---------0--0--0--2--2--2----------------------------------------------------

Verse(2x)
G |-----------------------------------------------------------------------------
D |-0--0--0--0--0--2--2--2--2--2------------------------------------------------
A |-------------------------------------------------4--4--4--4--4--4------------
E |-------------------------------2--2--2--2--2--2------------------------------

G |-----------------------------------------------------------------------------
D |-0--0--0--0--0--0--2--2--2--2--2--2------------------------------------------
A |-----------------------------------------------------------------------------
E |-----------------------------------------------------------------------------

Chorus(4x)
G |-----------------------------------------------------------------------------
D |-----------------------------------------------------------------------------
A |------------------------------------4--4--4--4--4--4--5--5--5--5--5--5-------
E |-5--5--5--5--5--5--4--4--4--4--4--4------------------------------------------

Outro(2x)
G |-----------------------------------------------------------------------------
D |-------------------------------------0--0--0--2--2--2------------------------
A |-0--0--0--------------------4--4--4--------------------0--0--0--0--0--0------
E |----------0--0--0--2--2--2---------------------------------------------------

Thats It Its Really East To Play
Comments