Vandals - 14 Chords & Tabs

 

14 Chords & Tabs

Vandals Chords & Tabs

Version: 1 Type: Tab 0 ratings
1 star 2 stars 3 stars 4 stars 5 stars
comments

14 Tab

14 - The Vandals

By: Dominik Fabri (dominik_fab@yahoo.de)


Intro: (no distortion)
e|---------------------------------------------------------------------------|
B|---------------------------------------------------------------------------|
G|---------------------------------------------------------------------------|
D|-2---6---7---2-----4---6---7-----------------------------------------------|
A|-2---6---7---2-----4---6---7-----------------------------------------------|
E|-0---4---5---0-----2---4---5-----------------------------------------------|

Verse: (with distortion) ;Do second verse with p.m.
e|---------------------------------------------------------------------------|
B|---------------------------------------------------------------------------|
G|---------------------------------------------------------------------------|
D|-2-2-2-2-2-2-2-2--6-6-6-6-6-6-6-6--7-7-7-7-7-7-7-7--2-2-2-2-2-2-2-2--------|
A|-2-2-2-2-2-2-2-2--6-6-6-6-6-6-6-6--7-7-7-7-7-7-7-7--2-2-2-2-2-2-2-2--------|
E|-0-0-0-0-0-0-0-0--4-4-4-4-4-4-4-4--5-5-5-5-5-5-5-5--0-0-0-0-0-0-0-0--------|

e|---------------------------------------------------------------------------|
B|---------------------------------------------------------------------------|
G|---------------------------------------------------------------------------|
D|-4-4-4-4-4-4-4-4--6-6-6-6-6-6-6-6--7-7-7-7-7-7-7-7-------------------------|
A|-4-4-4-4-4-4-4-4--6-6-6-6-6-6-6-6--7-7-7-7-7-7-7-7-------------------------|
E|-2-2-2-2-2-2-2-2--4-4-4-4-4-4-4-4--5-5-5-5-5-5-5-5-------------------------|
[ Tab from: http://www.guitartabs.cc/tabs/v/vandals/14_tab.html ]
Pre-Chorus:
e|---------------------------------------------------------------------------|
B|---------------------------------------------------------------------------|
G|---------------------------------------------------------------------------|
D|----------------------------------------------------------9-9-9-9-9-9-9-9--|
A|----------------------------------------------------------9-9-9-9-9-9-9-9--|
E|-2-----------------4----------------------------5---------7-7-7-7-7-7-7-7--|
  "Every new Sunrise brings your Heart a little closer...to ME !"

Chorus:
e|---------------------------------------------------------------------5-4-0-|
B|---------------------------------------------------------------------------|
G|------------------6-6-6-6-6-6-6-6------------------------------------------|
D|-2-2-2-2-2-2-2-2--6-6-6-6-6-6-6-6--7-7-7-7-7-7-7-7--9-9-9-9-9-9-9-9--------|
A|-2-2-2-2-2-2-2-2--4-4-4-4-4-4-4-4--7-7-7-7-7-7-7-7--9-9-9-9-9-9-9-9--------|
E|-0-0-0-0-0-0-0-0-------------------5-5-5-5-5-5-5-5--7-7-7-7-7-7-7-7--------|

e|---------------------------------------------------------------------------|
B|---------------------------------------------------------------------------|
G|------------------6-6-6-6-6-6-6-6------------------------------------------|
D|-2-2-2-2-2-2-2-2--6-6-6-6-6-6-6-6--7-7-7-7-7-7-7-7--9-9-9-9-9-9-9-9--------|
A|-2-2-2-2-2-2-2-2--4-4-4-4-4-4-4-4--7-7-7-7-7-7-7-7--9-9-9-9-9-9-9-9--------|
E|-0-0-0-0-0-0-0-0-------------------5-5-5-5-5-5-5-5--7-7-7-7-7-7-7-7--------|

e|-5-4-0---5-4-0-------------------------------------------------------------|
B|---------------------------------------------------------------------------|
G|---------------------------------------------------------------------------|
D|---------------------------------------------------------------------------|
A|---------------------------------------------------------------------------|
E|---------------------------------------------------------------------------|
Comments