Van Morrison - Wild Night Chords & Tabs

 

Wild Night Chords & Tabs

Van Morrison Chords & Tabs

Version: 2 Type: Bass Tab 0 ratings
1 star 2 stars 3 stars 4 stars 5 stars
comments

Wild Night Bass Tab

My first tab!!! I saw that you had one other haphazard version of this, but it's such a
killer bassline that I felt compelled to post a correct version. Enjoy!!

"Wild Night" ~ Van Morrison

Tabbed by Jordan Wood
stop982@hotmail.com

Intro:
                                   1   &   2   &   3   &   4   &   
G:----------|----------|----------|--------------------------------|
D:---rest---|---rest---|---rest---|--------------------------------|
A:----------|----------|----------|--------------------------------|
E:----------|----------|----------|--------------------10--12-p10--|

Verse:
  1   &   2   &   3   &   4   &    1   &   2   &   3   &   4   &    
G:------------12------------------|------------12------------------|
D:14--------------14--12------12--|14--------------14--12----------|
A:------------------------14------|------------------------14--12--|
E:--------------------------------|--------------------------------|

  1   &   2   &   3   &   4   &    1   &   2   &   3   &   4   &    
G:--------------------------------|12----------12------------------|
D:--------------------12--14--12--|----------------14--12------12--|
A:10----------10-s14--------------|------------------------14------|
E:--------------------------------|--------------------------------|

  1   &   2   &   3   &   4   &    1   &   2   &   3   &   4   &    
G:------------12------------------|------------12------------------|
D:14--------------14--12------12--|14--------------14--12----------|
A:------------------------14------|------------------------14--12--|
E:--------------------------------|--------------------------------|

  1   &   2   &   3   &   4   &    1   &   2   &   3   &   4   &    
G:--------------------------------|12----------12------------------|
D:--------------------12--14--12--|----------------14--12------12--|
A:10----------10-s14--------------|------------------------14------|
E:--------------------------------|--------------------------------|

  1   &   2   &   3   &   4   &    1   &   2   &   3   &   4   &    
G:------------12------------------|------------12------------------|
D:14--------------14--12------12--|14--------------14--12----------|
A:------------------------14------|------------------------14--12--|
E:--------------------------------|--------------------------------|

  1   &   2   &   3   &   4   &    1   &   2   &   3   &   4   &    
G:--------------------------------|12----------12------------------|
D:--------------------12--14--12--|----------------14--12------12--|
A:10----------10-s14--------------|------------------------14------|
E:--------------------------------|--------------------------------|

  1   &   2   &   3   &   4   &    1   &   2   &   3   &   4   &    
G:------------12------------------|------------12------------------|
D:14--------------14--12------12--|14--------------14--12----------|
A:------------------------14------|------------------------14--12--|
E:--------------------------------|--------------------------------|

  1   &   2   &   3   &   4   &    1   &   2   &   3   &   4   &    
G:--------------------------------|--------------------------------|
D:--------------------12-----s14~~|~~~~14-----s14~~~~~~12----------|
A:10----------10-s14--------------|--------------------------------|
E:--------------------------------|--------------------------------|

  1   &   2   & [triplet] 4   &    1   &   2   & [triplet] 4   &    
G:----------------9h10h12---------|---------------11h12h14---------|
D:10--10------10----------10--12--|----12------12--------------12--|
A:--------------------------------|--------------------------------|
E:--------------------------------|--------------------------------|

  1   &   2   &   3   &   4   &    1   &   2   &   3   &   4   &    
G:--------------------------------|12------------------------------|
D:--------------------12--14--12--|--------------------------------|
A:10--10------10-s14--------------|--------------------------------|
E:--------------------------------|------------------------12-p10--|

Pre-chorus:
  1   &   2   &   3   &   4   &    1   &   2   & [triplet] 4   &    
G:--------------------------------|------------12--14p12---12------|
D:----------------------------10--|----10-s14-----------14-----12--|
A:----------------10--12----------|--------------------------------|
E:12----------12------------------|--------------------------------|

  1   &   2   &   3   &   4   &    1   &   2   & [triplet] 4   &    
G:--------------------------------|------------12--14p12---12------|
D:s14~~~~~----14--14--12------10--|----10-s14-----------14-----12--|
A:--------------------------------|--------------------------------|
E:--------------------------------|--------------------------------|

  1   &   2   &   3   &   4   &    1   &   2   & [triplet] 4   &    
G:--------------------------------|------------12--14p12-----------|
D:s14~~~~~----14--14--12------10--|----10-s14-----------14----(12)-|
A:--------------------------------|--------------------------------|
E:--------------------------------|--------------------------------|

  1   &   2   &   3   &   4   &    1   &   2   &   3   &   4   &    
G:--------------------------------|--------------------------------|
D:--------------------------------|(12)(12)10--10--9---9---7---7---|
A:--------------------------------|--------------------------------|
E:--------------------------------|--------------------------------|

Chorus:
  1   &   2   &   3   &   4   &    1   &   2   &   3   &   4   &    
G:--------------------------------|--------------------------------|
D:------------5-------------------|------------2-------------------|
A:7---7-----------7---5-------5---|3---3-----------3---2-------2---|
E:------------------------7-------|------------------------5-------|

  1   &   2   &   3   &   4   &    1   &   2   & [triplet] 4   &    
G:--------------------------------|------------19------------------|
D:5---5-------5-------------------|----14-s21-----21p20p19-17------|
A:----------------7---5-------10--|----------------------------17--|
E:--------------------------------|--------------------------------|

  1   &   2   &   3   &   4   &    1   &   2   &   3   &   4   &    
G:------------12------------------|------------9-------------------|
D:----------------14--12------10--|----10----------10--9-----------|
A:s19-19--------------------------|----------------------------12--|
E:--------------------------------|--------------------------------|

  1   &   2   &   3   &   4   &    1   &   2   &   3   &   4   &    
G:------------------------12------|12--12------12--12--12----------|
D:-------s14--12--14--12------12--|------------------------14--12--|
A:10------------------------------|--------------------------------|
E:--------------------------------|--------------------------------|


  1   &   2   &   3   &   4   &    1   &   2   &   3   &   4   &    
G:------------12------------------|--------------------------------|
D:14--14----------14--12----------|10--10------10--10--9---10--11--|
A:------------------------14--12--|--------------------------------|
E:--------------------------------|--------------------------------|

  1   &   2   &   3   &   4   &    1   &   2   & [triplet] 4   &    
G:--------------------------------|------------19------------------|
D:12--12------12--12--12------14--|----14-s21-----21p20p19-17------|
A:--------------------------------|----------------------------17--|
E:--------------------------------|--------------------------------|

  1   &   2   &   3   &   4   &    1   &   2   & [triplet] 4   &    
G:------------12------------------|------------12--14p12---12------|
D:----------------14--12----------|10--10-s14-----------14-----12--|
A:s19-19------------------12--14--|--------------------------------|
E:--------------------------------|--------------------------------|

  1   &   2   &   3   &   4   &    1   &   2   &   3   &   4   &    
G:--------------------------------|12------------------------------|
D:------------12--14--12--14--12--|--------------------------------|
A:10--10-s14----------------------|--------------------------------|
E:--------------------------------|------------------------12-p10--|

Verse:
  1   &   2   &   3   &   4   &    1   &   2   &   3   &   4   &    
G:------------12------------------|------------12------------------|
D:14--------------14--12------12--|14--------------14--12----------|
A:------------------------14------|------------------------14--12--|
E:--------------------------------|--------------------------------|

  1   &   2   &   3   &   4   &    1   &   2   &   3   &   4   &    
G:--------------------------------|12----------12------------------|
D:--------------------12--14--12--|----------------14--12------12--|
A:10----------10-s14--------------|------------------------14------|
E:--------------------------------|--------------------------------|

  1   &   2   &   3   &   4   &    1   &   2   &   3   &   4   &    
G:------------12------------------|------------12------------------|
D:14--------------14--12------12--|14--------------14--12----------|
A:------------------------14------|------------------------14--12--|
E:--------------------------------|--------------------------------|

  1   &   2   &   3   &   4   &    1   &   2   &   3   &   4   &    
G:--------------------------------|12----------12------------------|
D:--------------------12--14--12--|----------------14--12------12--|
A:10----------10-s14--------------|------------------------14------|
E:--------------------------------|--------------------------------|

  1   &   2   &   3   &   4   &    1   &   2   &   3   &   4   &    
G:------------12------------------|------------12------------------|
D:14--------------14--12------12--|14--------------14--12----------|
A:------------------------14------|------------------------14--12--|
E:--------------------------------|--------------------------------|

  1   &   2   &   3   &   4   &    1   &   2   &   3   &   4   &    
G:--------------------------------|----------------12--------------|
D:--------------------12--14--12--|s14~14~~14~~14------14----------|
A:10----------10-s14--------------|--------------------------------|
E:--------------------------------|--------------------------------|

  1   &   2   & [triplet] 4   &    1   &   2   & [triplet] 4   &    
G:----------------9h10h12---------|---------------11h12h14---------|
D:10--10------10----------10--12--|----12------12--------------12--|
A:--------------------------------|--------------------------------|
E:--------------------------------|--------------------------------|

  1   &   2   &   3   &   4   &    1   &   2   &   3   &   4   &    
G:--------------------------------|12------------------------------|
D:--------------------12--14--12--|--------------------------------|
A:10--10------10-s14--------------|--------------------------------|
E:--------------------------------|------------------------12-p10--|
[ Tab from: http://www.guitartabs.cc/tabs/v/van_morrison/wild_night_btab_ver_2.html ]
Pre-chorus:
  1   &   2   &   3   &   4   &    1   &   2   & [triplet] 4   &    
G:--------------------------------|------------12--14p12---12------|
D:----------------------------10--|----10-s14-----------14-----12--|
A:----------------10--12----------|--------------------------------|
E:12----------12------------------|--------------------------------|

  1   &   2   &   3   &   4   &    1   &   2   & [triplet] 4   &    
G:--------------------------------|------------12--14p12---12------|
D:s14~~~~~----14--14--12------10--|----10-s14-----------14-----12--|
A:--------------------------------|--------------------------------|
E:--------------------------------|--------------------------------|

  1   &   2   &   3   &   4   &    1   &   2   & [triplet] 4   &    
G:--------------------------------|---------------------12---------|
D:s14~~~~~----14--14--12------10~~|~~~~~~~~----10--12s14------(12)-|
A:--------------------------------|--------------------------------|
E:--------------------------------|--------------------------------|

  1   &   2   &   3   &   4   &    1   &   2   &   3   &   4   &    
G:--------------------------------|--------------------------------|
D:--------------------------------|(12)(12)10--10--9---9---7---7---|
A:--------------------------------|--------------------------------|
E:--------------------------------|--------------------------------|

Chorus:
  1   &   2   &   3   &   4   &    1   &   2   &   3   &   4   &    
G:--------------------------------|--------------------------------|
D:------------5-------------------|------------2-------------------|
A:7---7-----------7---5-------5---|3---3-----------3---2-------2---|
E:------------------------7-------|------------------------5-------|

  1   &   2   & [triplet] 4   &    1   &   2   & [triplet] 4   &    
G:---------------------12---------|------------19------------------|
D:----------------12s14---12------|----14-s21-----21p20p19-17------|
A:10--10--10--10--------------10--|----------------------------17--|
E:--------------------------------|--------------------------------|

  1   &   2   &   3   &   4   &    1   &   2   & [triplet] 4   &    
G:------------12------------------|---------------------12---------|
D:----------------14--12------12--|s14---------10--12s14---12------|
A:s19~~~~~----------------14------|----------------------------10--|
E:--------------------------------|--------------------------------|

  1   &   2   &   3   &   4   &    1   &   2   &   3   &   4   &    
G:--------------------------------|12------------------------------|
D:--------------------12--14--12--|----------------14--12------12--|
A:10----------10-s14--------------|------------------------14------|
E:--------------------------------|--------------------------------|


  1   &   2   &   3   &   4   &    1   &   2   &   3   &   4   &    
G:------------12------------------|--------------------------------|
D:14~~~~~~--------14--12----------|10--10------10--10--9---10--11--|
A:------------------------14--12--|--------------------------------|
E:--------------------------------|--------------------------------|

  1   &   2   & [triplet] 4   &    1   &   2   & [triplet] 4   &    
G:---------------------12---------|------------19--21p19---19------|
D:12--12--12--12--12s14---12------|----14-s21-----------21-----19--|
A:----------------------------10--|--------------------------------|
E:--------------------------------|--------------------------------|

  1   &   2   &   3   &   4   &    1   &   2   & [triplet] 4   &    
G:----------------12--------------|------------12--14p12---12------|
D:------------14------14--12--10--|10--10-s14-----------14-----12--|
A:19~~~~~~------------------------|--------------------------------|
E:--------------------------------|--------------------------------|

  1   &   2   &   3   &   4   &    1   &   2   &   3   &   4   &    
G:----------------------------12--|--------------------------------|
D:--------------------12--14------|-------------rest---------------|
A:10--10------10-s14--------------|--------------------------------|
E:--------------------------------|--------------------------------|

Interlude:
  1   &   2   &   3   &   4   &    1   &   2   &   3   &   4   &    
G:--------------------------------|--------------------------------|
D:------------5-------------------|------------5-------------------|
A:7---7-----------7---5-------5---|7---7-----------7---5-----------|
E:------------------------7-------|------------------------7---5---|

  1   &   2   &   3   &   4   &    1   &   2   &   3   &   4   &    
G:--------------------------------|--------------------------------|
D:--------------------------------|--------------------------------|
A:--------------------------------|------------------------5---5---|
E:3---3-------0---3---0---3---0---|3---3---5---5---7---7-----------|

  1   &   2   &   3   &   4   &    1   &   2   &   3   &   4   &    
G:--------------------------------|--------------------------------|
D:------------5-------------------|------------5-------------------|
A:7---7-----------7---5-------5---|7---7-----------7---5-----------|
E:------------------------7-------|------------------------7---5---|

  1   &   2   &   3   &   4   &    1   &   2   &   3   &   4   &    
G:--------------------------------|--------------------------------|
D:--------------------------------|--------------------------------|
A:-----------s5-------------------|--------------------------------|
E:3---3---------------7---5---0---|3---3-------0---3---3---0-------|

  1   &   2   &   3   &   4   &    1   &   2   &   3   &   4   &    
G:--------------------------------|--------------------------------|
D:------------5-------------------|----------------------------12--|
A:7---7-----------7---5-------5---|7---7---7--s10------------------|
E:------------------------7-------|--------------------12--10------|

  1   &   2   &   3   &   4   &    1   &   2   &   3   &   4   &    
G:--------------------------------|--------------------------------|
D:--------------------------------|--------------------------------|
A:10--10---------s7---5-----------|----------------5-------5-------|
E:------------3-----------7---5---|3---3-------3-------3-------3---|

  1   &   2   &   3   &   4   &    1   &   2   &   3   &   4   &    
G:--------------------------------|--------------------------------|
D:-----------s5-------------------|-----------s12------------------|
A:7---7-----------7---5-------5---|7---7---------------14--12------|
E:------------------------7-------|--------------------------------|

  1   &   2   &   3   &   4   &    1   &   2   &   3   &   4   &    
G:--------------------------------|12------------------------------|
D:--------------------12--14--12--|--------------------------------|
A:10--10---------s14--------------|------------------------7--p5---|
E:--------12--10------------------|--------------------------------|

  1   &   2   &   3   &   4   &    1   &   2   &   3   &   4   &    
G:--------------------------------|--------------------------------|
D:------------5-------------------|------------5-------------------|
A:7---7-----------7---5-------5---|7---7-----------7---5-----------|
E:------------------------7-------|------------------------7---5---|

  1   &   2   &   3   &   4   &    1   &   2   &   3   &   4   &    
G:--------------------------------|--------------------------------|
D:--------------------------------|--------------------------------|
A:--------------------------------|------------------------5---5---|
E:3---3-------0---3---0---3---0---|3---3---5---5---7---7-----------|

  1   &   2   &   3   &   4   &    1   &   2   &   3   &   4   &    
G:--------------------------------|--------------------------------|
D:------------5-------------------|------------5-------------------|
A:7---7-----------7---5-------5---|7---7-----------7---5-----------|
E:------------------------7-------|------------------------7---5---|

  1   &   2   &   3   &   4   &    1   &   2   &   3   &   4   &    
G:--------------------------------|--------------------------------|
D:--------------------------------|5-------------------------------|
A:--------------------5---7---5---|------------------------7--p5---|
E:3---3-------3--s7---------------|--------------------------------|

  1   &   2   &   3   &   4   &    1   &   2   &   3   &   4   &    
G:--------------------------------|--------------------------------|
D:------------5-------------------|------------5-------------------|
A:7---7-----------7---5-------5---|7---7-----------7---5-----------|
E:------------------------7-------|------------------------7---5---|

  1   &   2   &   3   &   4   &    1   &   2   &   3   &   4   &    
G:--------------------------------|--------------------------------|
D:--------------------------------|----------------5-------5---9---|
A:--------------------------------|------------5-------7-----------|
E:3---3-------0---3---0---3---0---|3---3--s7-----------------------|

  1   &   2   &   3   &   4   &    1   &   2   &   3   &   4   &    
G:--------------------------------|--------------------------------|
D:------------5-------------------|------------5-------------------|
A:7---7-----------7---5-------5---|7---7-----------7---5-----------|
E:------------------------7-------|------------------------7---5---|

  1   &   2   &   3   &   4   &    1   &   2   &   3   &   4   &    
G:--------------------------------|--------------------------------|
D:--------------------------------|--------------------------------|
A:--------------------------------|--------------------------------|
E:3---3---3---0---3---0---3---0---|3---3---3---0---3--s7---5-------|

  1   &   2   &   3   &   4   &    1   &   2   &   3   &   4   &    
G:--------------------------------|--------------------------------|
D:------------5-------------------|-----------s5-------------------|
A:7---7-----------7---5-------5---|7---7---------------7---5-------|
E:------------------------7-------|----------------------------7---|

  1   &   2   &   3   &   4   &    1   &   2   &   3   &   4   &    
G:--------------------------------|--------------------------------|
D:--------------------------------|--------------------------------|
A:-----------s5-------------------|--------------------------------|
E:3---3---------------7---5---0---|3---3-------0---3---3---0-------|

  1   &   2   &   3   &   4   &    1   &   2   &   3   &   4   &    
G:--------------------------------|--------------------------------|
D:-----------s5-------------------|-----------s12------------------|
A:7---7-----------7---5-------5---|7---7---------------14--12------|
E:------------------------7-------|--------------------------------|

  1   &   2   &   3   &   4   &    1   &   2   &   3   &   4   &    
G:--------------------------------|--------------------------------|
D:--------------------------------|--------------------------------|
A:10--10--------------------------|--------------------------------|
E:--------12--10--12--10--7---5---|3-------------------------------|
Comments