Van Halen - Unchained Chords & Tabs

 

Unchained Chords & Tabs

Van Halen Chords & Tabs

Version: 8 Type: Tab 0 ratings
1 star 2 stars 3 stars 4 stars 5 stars
comments

Unchained Tab

Van Halen Unchained Solo

All the other solos are wrong on this site but the rest of the song is good on this site.

Tabbed by: Matt Sammond


                           T     T     T     T     T
e|------------20b22------------------------------------------|
B|---18b20-----------------8p3h6h8p3h6h8p3h6h8p3h6h8p3h6-----|
G|---------------------3-------------------------------------|
D|-----------------------------------------------------------|
A|-----------------------------------------------------------|
E|-----------------------------------------------------------|
[ Tab from: http://www.guitartabs.cc/tabs/v/van_halen/unchained_tab_ver_8.html ]
e|--10-13p10-13p10-13p10-13p10-12b15--12-13-14---15p14p12----12-----------|
B|---------------------------------------------------------15-----12-------|
G|-------------------------------------------------------------------------|
D|-------------------------------------------------------------------------|
A|-------------------------------------------------------------------------|
E|-------------------------------------------------------------------------|

e|-------17--------17----------19--15--17--20--19--20--1920b22----|
B|------------20---------17----------------------------------------|
G|--/18------------------------------------------------------------|
D|-----------------------------------------------------------------|
A|-----------------------------------------------------------------|
E|-----------------------------------------------------------------|
Comments