Van Halen - Unchained Chords & Tabs

 

Unchained Chords & Tabs

Van Halen Chords & Tabs

Version: 7 Type: Tab 0 ratings
1 star 2 stars 3 stars 4 stars 5 stars
comments

Unchained Tab

   
This song was not very hard to get
but is some getting used to on the
speed.
Drop:DADGBE

*:Short Hold
p:Pull Off
v:Viberato
s:Stop
~:Slide
H:Harmonic
H:Hold

E --------------------------------------------------------|
B --7-8--------3*4-3--5-6-5--7-8--------10-11-10-----10p8-|
G --7-7--------3-3-3--5-5-5--7-7--------10-10-10-10--7----|   x4
D --7-7--------3-3-3--5-5-5--7-7--------10-10-10-10-------|
A --------------------------------------------------------|
D -------00000--------------------00000-------------------|


E -------------------------------------------5-5----------|
B -------------------------------------------------8~6-5--|
G -----------------3-5-------------------3~5-----5--------|
D ----------------3-3-5-----------------------------------|
A --3v-5-5-3s--1~3-------5-5-3v--5-5-3s-------------------|
D --------------------------------------------------------|

[ Tab from: http://www.guitartabs.cc/tabs/v/van_halen/unchained_tab_ver_7.html ]
E ---------------------------------------------------------|
B ---------------------------------------------------------|
G ------------------3---5v--12-12--12~10--7H---12~10~12----|
D -----------------3-3-5----12-12--12-10--7H---12-10-12-5--|h
A --3V-5-5-5s--1~3----------10-10--10-8--------10-8--10-5--|
D ---------------------------------------------------------|


E ---------------------------------------------------------|
B ------------------------12~14~12-------------------------|
G ------7H--12-12----7H---12-14-12-------7H-7H--14-12H--14-|
D ------7H--12-12----7H---10-12-10--3~7--7H-7H--14-12H--14-|
A --3s------10-10-5-----------------3-7---------12------12-|
D --3-------------5-----------------3-7--------------------|


E --------------------------------------------------------|
B --------------------------------------------------------|
G --14----12H-14~12~14--------12-14-14~12-----------------|
D --14----12H-14-12-12----5h--12-14-14-12-----------------|
A --12-7------12-10-12-7--5------12-12-10-5-7s--6S-5s-3h--|
D -----7---------------7--5---------------5-7---6--5--3---|

Listen for the timing. If you listen its right on the dot.
Comments