Van Halen - Unchained Chords & Tabs

 

Unchained Chords & Tabs

Van Halen Chords & Tabs

Version: 3 Type: Tab 2 ratings
1 star 2 stars 3 stars 4 stars 5 stars
comments

Unchained Tab

Artist: Van Halen
Song: Unchained
Album: Fair Warning

Intro and chorus:

E------------------------------------------------
B-------7-8------3-4-3-6-5-7-8------10-11-10-10-8
G-------7-7------3-3-3-5-5-7-7------10-10-10-10-9
D-------7-7XXXXXX3-3-3-5-5-7-7XXXXXX10-10-10-10-10     X4 for intro
A----------XXXXXX-------------XXXXXX--------------
E----------XXXXXX-------------XXXXXX--------------

1st and 2nd verse:

  /\/\/\                     /\                                   /\/\/\
E----------------------------------------------------------------------------------------
B----------------------------------------------------------------------------------------
G--------------------------------------------------5-------------------------------------
D------------------------------------3----------------5----------------------------------
A-(3)-5-------3------/5--(5)-3---------5/7-------------------(3)------5-----3------------
E-------------0------0--0---------------------------------0--0---------------0-----0---0-

------------------------------------------
-----------10--10------8------------------
----------------------------9-------------  X2
----5/10------------10--------------------  
--------------------------------------3---
---------------------------------X--------

Pre-chorus
[ Tab from: http://www.guitartabs.cc/tabs/v/van_halen/unchained_tab_ver_3.html ]
E---------------------------------------------------------------------------------------------
B---------------------------------------------------------------------------------------------
G--------------------------------7/5/7---------------------7---7-----------------7/5/7--------
D---7-------7-----------5--5-----5/3/5----------------X-X--5---5--------5---5----5/3/5--------
A---5----5--5-------5---------------------5--3--------X-X----------5------------------------3-
E-------------------5---------------------5--3--------X-X----------5------------------------3-

----------------------------------------------------------------------------------------------
----------------------------------------------------------------------------------------------
----------------9------9--------------9/7/9----------------------9----9-----------------------
-------7--7-----7---7--7--------------7/5/7----------------7-----7----7-----------------------
-3/7------------------------7-7-7------------7-------5--7------------------5-------7-6-5-3----
-3/7------------------------7-7-7------------7-------5---------------------5-------7-6-5-3----

Chorus (Riff played twice)

Verse

Pre Chorus

Chorus (Riff played twice)

Solo (See Unchained Solo and Breakdown coming soon)

Chorus (Riff played twice)

Breakdown

Chorus (Riff played four times)

Ending:                 

-----------------     --------
10-11-10-10-8----     ---7----
10-10-10-10-9---- X3  ---7---- 
10-10-10-10-10---     ---7----
-----------------     --------
-----------------     --------

X = heavy
/ = slide

I'll be back with more.

Tune the thick E string to D.

vanhalen52
Comments