Van Halen - Runnin With The Devil Chords & Tabs

 

Runnin With The Devil Chords & Tabs

Van Halen Chords & Tabs

Version: 8 Type: Tab 0 ratings
1 star 2 stars 3 stars 4 stars 5 stars
comments

Runnin With The Devil Tab

   
Band- Van Halen
Song- Runnin With The Devil

G5
3 5 5 x x x
A5
5 7 7 x x x
E5
0 2 2 x x x

Gtr I (Eb Ab Db Gb Bb Eb) - 'Eddie Van Halen brown sound Rhythm'
Gtr II (Eb Ab Db Gb Bb Eb) - 'Eddie Van Halen brown sound Lead'

For Fills see end of Tab

 Intro
  Q=96
 4/4
  Gtr I
                           |---5---|
  W          W          Q  S S S S S E E  Q      e Q.   +Q.   S S
|----------|----------|----x------------------||------------------|
|----------|----------|------x----------------||-5-7----(7)---x-x-|
|----------|----------|--------x--------------||-5-7----(7)---x-x-|
|----------|----------|----------x------------||-5-7----(7)---x-x-|
|----------|----------|------------x----------||------------------|
|----------|----------|--------------x---17\--||------------------|
 car horn fades in       rake strings behind nut

  E  E   E E +Q   S   E.   E Q.   +Q.   S S   E  E   E E +Q   S   E.
|------------------------|------------------|------------------------|
|-7h=8--10-9-(9)---------|-5-7----(7)---x-x-|-7h=8--10-9-(9)---------|
|-7-(7)--9-9-(9)---------|-5-7----(7)---x-x-|-7-(7)--9-9-(9)---------|
|-7h=9--11-9-(9)---------|-5-7----(7)---x-x-|-7h=9--11-9-(9)---------|
|------------------------|------------------|------------------------|
|-----------------x/-19\-|------------------|-----------------x/-19\-|


  E Q.   +Q.   S S   E  E   E E +Q   S   E.
|------------------|------------------------|
|-5-7----(7)---x-x-|-7h=8--10-9-(9)---------|
|-5-7----(7)---x-x-|-7-(7)--9-9-(9)---------|
|-5-7----(7)---x-x-|-7h=9--11-9-(9)---------|
|------------------|------------------------|
|------------------|-----------------x/-19\-|


                              >
  e Q.   +Q.   S S   E  E   E E +Q   +Q
|------------------|----------------------||
|-5-7----(7)---x-x-|-7h=8--10-9-(9)--(9)\-||
|-5-7----(7)---x-x-|-7-(7)--9-9-(9)--(9)\-||
|-5-7----(7)---x-x-|-7h=9--11-9-(9)--(9)\-||
|------------------|----------------------||
|------------------|----------------------||


   Verses
    $
      PM---|        PM     PM                PM
    E E q  E q.     E Q.   E Q.     E E  q   E q.
||----------------|---------------|-----------------|
||o---------------|---------------|-----------------|
||--2--------4----|---2------0----|-2----------4----|
||--2--------5----|---4------2----|-2---(2)----5----|
||o-0---0--0------|-0------0------|-0----0---0------|
||----3-----------|---------------|---3-------------|


Play Fill 1 - 2nd time
Play Fill 2 - 3rd time

  E E  S  S   S    S    +S    S   E   Q
|----------------<12>-(<12>)-----<7>-----||
|-----------<12>-------------<7>---------||
|-2-0--------------------------------<5>-||
|-4-2s(5)--------------------------------||
|----------------------------------------||
|----------------------------------------||

[ Tab from: http://www.guitartabs.cc/tabs/v/van_halen/runnin_with_the_devil_tab_ver_8.html ]
                                                          <
         pm       pm     pm              pm
  E E q  E q.     E q.   E q.     E E q  E q.     E q.    q.   +E
|---------------|---------------|---------------|--------!0----------||
|---------------|---------------|---------------|--------!0----------||
|-2--------4----|---2------0----|-2--------4----|-2-0----!0----------||
|-2--------5----|---4------2----|-2---2----5----|-4-2----!2----(2)/--||
|-0---0--0------|-0------0------|-0---0--0------|--------!2----(2)/--||
|---3-----------|---------------|---3-----------|--------!0----------||


 chorus
  E q.   +q.   s s   E  E   E E +q   s   E.
|------------------|------------------------|
|-5-7----(7)---x-x-|-7h=8--10-9-(9)---------|
|-5-7----(7)---x-x-|-7-(7)--9-9-(9)---------|
|-5-7----(7)---x-x-|-7h=9--11-9-(9)---------|
|------------------|------------------------|
|------------------|-----------------x/-19\-|


  E q.   +q.   s s   E  E   E E +q   s   E.
|------------------|-------------------------|
|-5-7----(7)---x-x-|-7h=8--10-9-(9)----------|
|-5-7----(7)---x-x-|-7-(7)--9-9-(9)----------|
|-5-7----(7)---x-x-|-7h=9--11-9-(9)----------|
|------------------|-------------------------|
|------------------|-----------------x/-19\--|


  E q.   +q.   s s   E  E   E E +q   s   E.
|------------------|------------------------|
|-5-7----(7)---x-x-|-7h=8--10-9-(9)---------|
|-5-7----(7)---x-x-|-7-(7)--9-9-(9)---------|
|-5-7----(7)---x-x-|-7h=9--11-9-(9)---------|
|------------------|------------------------|
|------------------|-----------------x/-19\-|


                    1.
                              >
  e Q.   +Q.   S S   E  E   E E +Q   +Q
|------------------|-------------------------||
|-5-7----(7)---x-x-|-7h=8--10-9-(9)--(9)\---o||
|-5-7----(7)---x-x-|-7-(7)--9-9-(9)--(9)\----||
|-5-7----(7)---x-x-|-7h=9--11-9-(9)--(9)\----||
|------------------|------------------------o||
|------------------|-------------------------||


 Guitar Solo
  2.,D.S.
                         To Coda
                                  A5
                                  Gtr I
                                   H                       H
                                   |                       | pick scrape
                                   /                       x

  Gtr I
  E  E   E E +Q     Q              W
|-------------------------------|
|-7h=8--10-9-(9)----------------|
|-7-(7)--9-9-(9)----------------|
|-7h=9--11-9-(9)----------------|
|-------------------------------|
|-----------------/17\----------|
|
| Gtr II                          Gtr II
|                                                    PM------|   ~~
| H           Q     S  S   S  S    S  S  S  S  S  S  S  S  S  S  E  +S   S  S  S
|-------------------x-----------|------------------------------------------------|
|-------------------x-----------|-14-15-17-15-15p14-------14---------------------|
|----------------------------14-|-------------------14-------14---------------12-|
|------------------------/14----|----------------------14-------14-(14)\---12----|
|-------------------------------|------------------------------------------------|
|-------------------------------|------------------------------------------------|


  G5                                            E
   H.                                  +E
Comments