Van Halen - Runnin With The Devil Chords & Tabs

 

Runnin With The Devil Chords & Tabs

Van Halen Chords & Tabs

Version: 1 Type: Tab 0 ratings
1 star 2 stars 3 stars 4 stars 5 stars
comments

Runnin With The Devil Tab

Tabbed by : Michiel Tummers
For: Guitar
Mail: mR_Man5on665@hotmail.com (also for msn)

Tabbed by : Michiel Tummers
For: Guitar
Mail: mR_Man5on665@hotmail.com (also for msn)
Tuning: normal : eBGDAE


Ok this is the 100% correct van halen tab. Have fun(it is very easy)
find out the tempo yourself
first bass then:

Intro
e|-x-----------|
B|--x----------|
G|---x---------|
D|----x--------|
A|-----x-------|
E|------x--17\-|

Main Riff
e|-------------------------|
B|--5-7--x-x-|-7h8-10------|
G|--5-7--x-x-|-7----9------|
D|--5-7--x-x-|-7h9-11------|
A|-------------------------|
E|----------------------19/|


Verse:
e|---------------------------|
B|---------------------------|
G|--2---------5---2-------0--|
D|--2--2------4---4-------2--|
A|--0--0----0----0------0----|
E|----3----------------------|

The harmonics are:

e---12--7---|
b-12---7----|
g---------5-|

The end note voor each verse is a Em
[ Tab from: http://www.guitartabs.cc/tabs/v/van_halen/runnin_with_the_devil_tab.html ]
In the second you get no harmonics but a 7^9 trill at B and G string
                                         7^9

Solo:
e|----------------------------------------------------------------|
B|---------14-15-17-15-15p14------14------------12-13-15-13-13p12-|
G|-------14-----------------14------14--------12------------------|
D|--7/14----------------------14------14--5/12--------------------|
A|----------------------------------------------------------------|
E|----------------------------------------------------------------|

e|------------------------------------17Fb-17-17----17---------|
B|-------12------------15-17-15-15p14----hold bend--release----|
G|--12-----12--------14-------------------------------------12-|
D|----12-----12--7/14------------------------------------------|
A|-------------------------------------------------------------|
E|-------------------------------------------------------------|


e|--------------14-15-16---\-|
B|--12/13-15p13-15-16-17---\-|
G|---------------------------|
D|---------------------------|
A|---------------------------|
E|---------------------------|
Comments