Van Halen - Jump Chords & Tabs

 

Jump Chords & Tabs

Van Halen Chords & Tabs

Version: 7 Type: Tab 0 ratings
1 star 2 stars 3 stars 4 stars 5 stars
comments

Jump Tab

   
Rock930
december 3,2004
Jump

-----------------------------PLEASE-NOTE------------------------------------
This is that this is the athurs work and can be used as for reasearch, study and documentation.

----------------------------------------------------------------------------

S slide
/ slide down
\ slide up
P pull- off
<5> natural harmonic,or pinched harmonic
~ vibrato
h hammer
b bend
bf bend front
t trill

Standard Tunning:

E/--------------------|-----------------------------|-----------------------|
B/------15-------17---|--13---------13----15----15--|----(15)----17---------|
G/------16-------17---|--14---------14----16----16--|----(16)----17---------|
D/------17-------17---|--15---------15----17----17--|----(17)----17---------|
A/--------------------|-----------------------------|-----------------------|
E/--------------------|-----------------------------|-----------------------|

E/-------------------------------------|---20-----20--|---20---20----15-----|
B/--13-----10-----(10)----8-------8----|---22-----22--|---22---22----17-----|
G/--14-----10-----(10)----9-------7----|---22-----22--|---22---22----17-----|
D/--15-----10-----(10)----10------10---|--------------|---------------------|
A/-------------------------------------|--------------|---------------------|
E/-------------------------------------|--------------|---------------------|

E/-------------------------|---20-----20------|-----20----20----------|-----|
B/-----(10)-----8-----8----|---22-----22------|-----22----22-------15-|-----|
G/-----(10)-----9-----7----|---22-----22------|-----22----22-------17-|-----|
D/-----(10)-----10----10---|------------------|--------------------17-|-----|
A/-------------------------|------------------|-----------------------|-----|
E/-------------------------|------------------|-----------------------|-----|

E/-----------(15)--------------------------------|-----------------------|--|
B/-----------(17)-----13-------10-------10-------|--(10)-------8------8--|--|
G/-----------(17)-----14-------10-------10-------|--(10)-------9------7--|--|
D/--------------------15-------10-------10-------|--(10)-------10-----10-|--|
A/-----------------------------------------------|-----------------------|--|
E/-----------------------------------------------|-----------------------|--|

E/-------------------|-------------------------------------------|----------|
B/-------------------|-------------------------------------------|----------|
G/----(9)------------|----------------------------------9--------|----------|
D/-------------------|-------------------------------------------|----------|
A/-------------------|-------------------------------------------|----------|
E/-------------------|-------------------------------------------|----------|

E/--------------------------------------------------------------------------|
B/--------------------------------------------------------------------------|
G/--------------5---------------5--7/9----(9)-7--------------------------5--|
D/----------7----------------5----------------------------------------7-----|
A/-----(8)------------(8)-7------------------------------5-7-------8--------|
E/--------------------------------------------------------------------------|

E/-----------------------|-------------------|-----------------------------|
B/-----------------8/10--|--(10)---8---------|------------(8)--------------|
G/-------------5---------|-------------------|-----------------------------|
D/-----------7-----------|-------------------|-----------------------------|
A/---(8)---7-------------|-------------------|-----------------------------|
E/-----------------------|-------------------|-----------------------------|

Guitar solo

E/------19------(19)----7-----|-----7-----------7--------------------------|
B/-------------------------10-|-------7-10/7-----------------7-------------|
G/----------------------------|--------------10----10/9/7/-9---7---(7)-----|
D/----------------------------|--------------------------------------------|
A/----------------------------|--------------------------------------------|
E/----------------------------|--------------------------------------------|

E/--------------------------|------------------------7/10-14|-10-9-7-10-14--|
B/------7-----7---7--7------|-------------------------------|---------------|
G/--------------------------|----9--------------------------|---------------|
D/--------------------------|------9\7--7-------------------|---------------|
A/----------------------9---|---------9--9-8-7\5-7-5--------|---------------|
E/------------------------0-|-------------------------------|---------------|

E/--10-9-7-----------------------------------------------------------------|
B/--------10/14\7----------------------------------------------------------|
G/---------------10-14-7-11------------------------------------------------|
D/-------------------------14-7-11-----------------------------------------|
A/--------------------------------14-7-11----------------------------------|
E/-------------------------------------------------------------------------|

E/---------------------|-----7-9-12-12-14-10-12-12---------------------------|
B/---------------------|----7------------------------------------------------|
G/-----------9--(9)-7-9|9-7--------------------------------------------------|
D/---------------------|-9----------------------------------16-17-19---------|
A/-----7--7/9----------|----------------------------16-17-19----------16-17--|
E/---------------------|--------------------------(17)-----------------------|
[ Tab from: http://www.guitartabs.cc/tabs/v/van_halen/jump_tab_ver_7.html ]
E/--------------------------------|
B/--------------------16-17-19----|
G/-----------16--17-19------------|
D/----16-17-19--------------------|
A/--19----------------------------|
E/--------------------------------|

Gtr.IV

E/-16-17-16------------------------|--16----------------------------------|
B/---------------------------------|--------------------------------------|
G/---------------------------------|--------------------------------------|
D/---------------------------------|--------------------------------------|
A/---------------------------------|--------------------------------------|
E/---------------------------------|--------------------------------------|

E/10-7--10-7--12-6--12-8--10-7-|--10-7---8-5--6-5-8-5-10-7--10-7-12-6-10-7|
B/----8-----8-----8-----8------|-8-----8----6----6---6----8-----6----8----|
G/-----------------------------|------------------------------------------|
D/-----------------------------|------------------------------------------|
A/-----------------------------|------------------------------------------|
E/-----------------------------|------------------------------------------|

E/--10-7--10-7--8-5-8-5--8-5--|-7-3-7-3-8-5--10-7-8-5-|--10-7-8-5-7--7-3-|
B/-8----8-----8----6---6----6-|----3---3---6-----6----|6-----6---6--3---3|
G/----------------------------|-----------------------|------------------|
D/----------------------------|-----------------------|------------------|
A/----------------------------|-----------------------|------------------|
E/----------------------------|-----------------------|------------------|

E/--5-1--5-1-7-3-5-1-7-3|-8-5--10-7-8-5---10-7--8-5--|
B/-----1----1---3---1---|3---6-----8----6-----8----6-|
G/----------------------|----------------------------|
D/----------------------|----------------------------|
A/----------------------|----------------------------|
E/----------------------|----------------------------|

E/------------------------------------|-------------------------------------|
b/8-13-15-20-8-13-15-20-15-13-15-20-15|-8-13-15-20-15-8-13-15-20-15-8-13-15-|
G/------------------------------------|-------------------------------------|
D/------------------------------------|-------------------------------------|
A/------------------------------------|-------------------------------------|
E/------------------------------------|-------------------------------------|

E/--13-8-13-15-20-15-8-13-15-20-15-8-13-15-20-15-8-13-15|-20-15-8-13-15-20-|
B/------------------------------------------------------|------------------|
G/------------------------------------------------------|------------------|
D/------------------------------------------------------|------------------|
A/------------------------------------------------------|------------------|
E/------------------------------------------------------|------------------|

E/15-8-13-15-20-15-13-8-15-20-15-8-15-13|-8-13-15-20-15-8-13-15-20-15-8-13--|
B/--------------------------------------|-----------------------------------|
G/--------------------------------------|-----------------------------------|
D/--------------------------------------|-----------------------------------|
A/--------------------------------------|-----------------------------------|
E/--------------------------------------|-----------------------------------|

E/-15-20-15-13-8-13-15-20-15-13-8-13-15-20-15-13|--------|---------|-------|
B/----------------------------------------------|--------|8--------|-------|
G/----------------------------------------------|5-7-9-7-|-5-9-5-7-|7---9-5|
D/----------------------------------------------|--------|---------|-------|
A/----------------------------------------------|--------|---------|-------|
E/----------------------------------------------|--------|---------|-------|

E/----------|---------------|-------------------|-------------|
B/----------|---------------|-------------------|-------------|
G|----------|---------------|-------------------|-------------|
D/----------|---------------|-------------------|-------------|
A/-3-3-3-3--|-3-3-3-3-3-3-3-|-3-3-3-3---3-3-3-3-|-3-----------|
E/----------|---------------|-------------------|--1-1-3-3-3-3|

E/----------------|-----3--3--------|----------------|-----------------------|
B/----------------|-----5--3--------|---5-5-5-4-4-5-2|-2-2-5-5-4-4-5-----5-5-|
G/-5-5-5-5-5-5-5-5|-5---5--5--------|----------------|--------------5-5-5----|
D/----------------|------------5-5-5|----------------|-----------------------|
A/----------------|-----------------|-3--------------|-----------------------|
E/----------------|-----------------|----------------|-----------------------|

E/----------|---3---3--3---3--3|---------------|-----------------|---3-3|
B/----------|---5---3--3---3--5|---------------|-----------------|---5-3|
G/-5-5-5-5-5|-5-5---5--5---5--5|--5-5-5-5-5-5-5|-5-5-5-5-5-5-5-5-|-5-5-5|
D/----------|------------------|---------------|-----------------|------|
A/----------|------------------|---------------|-----------------|------|
E/----------|------------------|---------------|-----------------|------|

E/--------------|----------------|------------|--3-3-3-3-3|--------------|
B/--------------|----------------|------------|--5-3-3-3-3|--------------|
G/5-5-5-4-4-5--2|2-2-5-5-4-4-5---|---5-5-5-5-5|5-6-5-5-5-5|5-5-5-5-5-5-5-|
D/--------------|--------------5-|5-5---------|-----------|--------------|
A/--------------|----------------|------------|-----------|--------------|
E/--------------|----------------|------------|-----------|--------------|

E/-----------------|
B/-----------------|
G/-5-5-5-5-5-5-5-5-|
D/-----------------|
A/-----------------|
E/-----------------|

Hey thanks for reading my tab please rate my tab email me at b_decker@comcast.net
Comments