Van Halen - Jump Chords & Tabs

 

Jump Chords & Tabs

Van Halen Chords & Tabs

Version: 4 Type: Tab 0 ratings
1 star 2 stars 3 stars 4 stars 5 stars
comments

Jump Tab

stevem@imap1.asu.edu
Solo to "Jump" by Van Halen

Notes:  Eddie is one of the trickiest guitarists in the world.  His style is
        unprecedented, and you have to pay close attention to what he is 
        doing.  In comparison to some of his other solos, this one is easy.

         ~~~~~~~            ~~~~~~                              ~~~~~~~
-------19-----------7----------------7-----------7--------------------------
-----x-----------------10^(1)----------7-10p7----------------7--------------
---x------------------------------------------10---10p9p7--9---7------------
----------------------------------------------------------------------------
----------------------------------------------------------------------------
----------------------------------------------------------------------------

 |---------------A.H.-----------------|          A.H.

                                  ~~~~~              /---\release
----------------------------------------------------------------------------
--7^(1/2)----7----7(pre(1))--7^(1)---------------9^(1)----------------------
----------------------------------------------------------------------------
------------------------------------------9-----------------9p7-----7-------
---------------------------------------------9-------------------9----------
----------------------------------------------------------------------------

                   |-----------starts to produce that 'falling effect'------
[ Tab from: http://www.guitartabs.cc/tabs/v/van_halen/jump_tab_ver_4.html ]
                         T             T             T          T   T
          ~~~~~
-------------------7h10-14p10p9p7h10--14p10p9p7h10--14p10p9p7---------------
--------------------------------------------------------------14p7----------
-------------------------------------------------------------------14p7h11--
----------------------------------------------------------------------------
9p8p7p5-7-5-----------------------------------------------------------------
----------------------------------------------------------------------------


--------------------|
                                                |-P.M.-|
   T        T                                                               
                       /---\release      ~~~~                            ~~~
-------------------------------------------------------7-9-12-12h14--10-12--
-----------------------------------------------------7----------------------
---------------------------------9^(1)p7-9---------7------------------------
--14p7h11----------------------------------------9--------------------------
-----------14p7h11p7^(1)------/9--------------------------------------------
----------------------------------------------------------------------------


----------------------------------------------------------16h17p16----------
-------------------------------------------------16h17h19-------------------
----------------------------------------16h17h19----------------------------
------------16h17h19-----------16h17h19-------------------------------------
--16h17h19-----------16h17h19-----------------------------------------------
----------------------------------------------------------------------------
Comments