Van Halen - Im The One Chords & Tabs

 

Im The One Chords & Tabs

Van Halen Chords & Tabs

Version: 1 Type: Tab 0 ratings
1 star 2 stars 3 stars 4 stars 5 stars
comments

Im The One Tab

   
Band- Van Halen
Song- Im The One

Gtr I (Eb Ab Db Gb Bb Eb) - 'Eddie Van Halen - Lead & Rhythm w/dist'

Intro
    Q=236(8=s8)
   4/4
    Gtr I
    E E E E E E E E   E E E E E Q.
||------------------|----------------|
||o-----------------|----------------|
||------------------|-----------5----|
||--------7-------5-|-------7---5----|
||o-0-0-0---0-0-0---|-0-0-0---0------|
||------------------|----------------|


                                      ~~~~
  E E E E E E E E   E E E E E E      +Q
|-----------------|------------------------|
|-----------------|------------------------|
|-----------------|------------------------|
|-------7-------5-|-------7----------------|
|-0-0-0---0-0-0---|-0-0-0---0-3b3.5==(3)r--|
|-----------------|------------------------|


                   1.
                                |-3-|
  E E E E E E E E   E E E E E E E E E
|-----------------|-------------------|
|-----------------|-------------------|
|-----------------|-------------5p0---|
|-------7-------5-|-------7---5-----7-|
|-0-0-0---0-0-0---|-0-0-0---0---------|
|-----------------|-------------------|


          PM|
  |-3-| |-3-| |-3-| |-3-|   |-3-| |-3-|
  E E E E E E E E E E E E   E E E E E E E E Q
|-------------------------|-----------------------||
|-5p0---------5p0---------|----------------------o||
|-----7p5-0-------7p5p0---|-5p0-------------------||
|-----------7-----------7-|-----7-5p0---7-5p0-----||
|-------------------------|-----------7----------o||
|-------------------------|-----------------------||


  2.
                          |----3----|   |---3---|
  E E E E E E +E.  S      Q    Q    Q   Q   Q   Q
|---------------------|----------------------------|
|---------------------|----------------------------|
|-----------5-(5)-----|---------------------|
|-------7---5-(5)-----|---------------------|
|-0-0-0---0-------(7)S|=--------------------|
|---------------------|----------------------------|


           \1.5/         \1.5/
           |------3------|
   H      +E      +E    +E      +Q
|-------------------------------------||
|-------------------------------------||
|-----()---()-()---()--||
|-------------------------------------||
|-------------------------------------||
|-------------------------------------||


                                      ~~~~~~~
    |-3-|
    E E E E E E E E E   +E       +E   Q  +Q    E  E
||--------------------|-----------------------------|
||o-------------------|-----------------------------|
||--8p7p5-------------|---------------------------5-|
||--------7-7---5---5-|-(5)b5.5==(5)rh7--(7)--(7)---|
||o-------------------|-----------------------------|
||--------------------|-----------------------------|


                            PM|
  |-3-|
  E E E E E E E E E   +E  E E E Q   E  E
|-------------------|---------------------|
|-------------------|---------------------|
|-8p7p5-------------|-----------2------5--|
|-------7-7---5---5-|-(5)p0--------(0)----|
|-------------------|-------3-4-----------|
|-------------------|---------------------|


                     1.
                                    ~~~~~~~
  |-3-|
  E E E E E E E E E   +E       +E   Q  +E  S S  Q
|-------------------|-----------------------------------|
|-------------------|-----------------------------------|
|-8p7p5-------------|--------------------------[7]b8.5--|
|-------7-7---5---5-|-(5)b5.5==(5)rh7--(7)---x----------|
|-------------------|----------------------x------------|
|-------------------|-----------------------------------|


   E.      +S    Q   Q  Q    Q  Q  Q  Q
|--------------------------|--------------||
|--------------------------|-------------o||
|-[5]b6.5==(5)r------------|--------------||
|---------------[7]--6--5--|--------------||
|--------------------------|-7--6--5--3--o||
|--------------------------|--------------||


  2.
                ~
                               |--3--|  |--3--|  |--3--|  |--3--|
   E       +E   Q   Q   Q      E  E  E  E  E  E  E  E  E  E  E  E
|---------------------------|-------------------------------------|
|---------------------------|-------------------------------------|
|---------------------------|-------------------16h17h19-16h17-19-|
|-(5)b5.5==(5)r-7--(7)------|----------16h17h19-------------------|
|-------------------x\--5/--|-16h17h19----------------------------|
|---------------------------|-------------------------------------|


   |--3--|  |--3--|
   E  E  E  E  E  E  +Q    +Q
|----------16-19-17-(17)--(17)\--||
|-16h17h19-----------------------||
|--------------------------------||
|--------------------------------||
|--------------------------------||
|--------------------------------||


 Verse
                                                                         ~~~~
  E E E E E E E E   E E E E E Q.     E E E E E E E E   E E E E E E      +Q
|-----------------|----------------|-----------------|------------------------|
|-----------------|----------------|-----------------|------------------------|
|-----------------|-----------5----|-----------------|------------------------|
|-------7-------5-|-------7---5----|-------7-------5-|-------7----------------|
|-0-0-0---0-0-0---|-0-0-0---0------|-0-0-0---0-0-0---|-0-0-0---0-3b3.5==(3)r--|
|-----------------|----------------|-----------------|------------------------|


  E E E E E E E E   E E E E E E +Q
|-----------------|-------------------|
|-----------------|-------------------|
|-----------------|-----------5-(5)/--|
|-------7-------5-|-------7---5-(5)/--|
|-0-0-0---0-0-0---|-0-0-0---0---------|
|-----------------|-------------------|


                                                \1/
    |----3----|   |---3---|     |-3-|
    Q    Q    Q   Q   Q   Q     Q   H    +E    +E    +Q
|----------------------------|-----------------------------|
|----------------------------|-------()-()-()--|
|---------------------|--------------------------|
|---------------------|-----------------------------|
|---------------------|-----------------------------|
|----------------------------|-----------------------------|


                                                                         ~~~~
  E E E E E E E E   E E E E E Q.     E E E E E E E E   E E E E E E      +Q
|-----------------|----------------|-----------------|------------------------|
|-----------------|----------------|-----------------|------------------------|
|-----------------|-----------5----|-----------------|------------------------|
|-------7-------5-|-------7---5----|-------7-------5-|-------7----------------|
|-0-0-0---0-0-0---|-0-0-0---0------|-0-0-0---0-0-0---|-0-0-0---0-3b3.5==(3)r--|
|-----------------|----------------|-----------------|------------------------|


  E E E E E E E E   E E E E E Q  E
|-----------------|----------------|
|-----------------|----------------|
|-----------------|-----------5----|
|-------7-------5-|-------7---5--x-|
|-0-0-0---0-0-0---|-0-0-0---0------|
|-----------------|----------------|


      \2.5__________/     \1.5/  \1.5/  \1.5/  \1.5/
                          |------3------|
  E E Q      +Q.   +E    +Q     +Q     +Q     +H
|----------------------|--------------------------------||
|----------------------|--------------------------------||
|-x--------------------|--------------------------------||
|-----0------(0)---(0)-|-(0)----(0)----(0)----(0)-------||
|----------------------|--------------------------------||
|----------------------|--------------------------------||


 Pre-Chorus
                                                |----3----|
  +E   Q.    Q   Q     Q   Q  Q  E E   +Q.   E +E  E  Q   Q
|-------------------|----------------|-----------------------|
|-------------------|----------------|--------------------|
|-------------------|----------------|-----------------------|
|-(0)-14----13--12--|-11--10--9----7-|-(7)---x-(x)--------|
|-----12----11--10--|--9---8--7--6-5-|-(5)-------------------|
|-------------------|----------------|-----------------------|


          \2.5/         \1.5/         \1.5/         \1.5/
                  |----------------3----------------|
   Q.    +E      +E    +E      +E    +E      +E    +E
|---------------------------------------------------------|
|---------------------------------------------------------|
|----()---()-()---()-()---()-()---|
|---------------------------------------------------------|
|---------------------------------------------------------|
|---------------------------------------------------------|


  E  Q.    Q   Q     Q   Q  Q  E E   +W           Q  Q  Q  Q
|-----------------|----------------|------------|--------------|
|-----------------|----------------|------------|--------------|
|-----------------|----------------|------------|--------------|
|---14----13--12--|-11--10--9----7-|-(7)--------|-xs=xs=x\-----|
|---12----11--10--|--9---8--7--6-5-|-(5)--------|-------xs=xs==|
|-----------------|----------------|------------|----------xs==|


                                                       \1.5
  E  Q.    Q   Q     Q   Q   Q   E E   +H     +S  S E +Q
|-----------------|------------------|------------------------|
|-----------------|------------------|------------------------|
|---16----15--14--|-13--12--11--10-9-|-(9)----(9)-------------|
|---16----15--14--|-13--12--11--10-9-|-(9)----(9)-------------|
|-x-14----13--12--|-11--10---9---8-7-|-(7)----(7)-x-----------|
|-x---------------|------------------|--------------0-(0)-----|


               \2.5___/
  +Q   +H      a     +E  +E    +E   Q.    Q   Q     Q   Q   Q  E E
|----------------------------|-------------------|------------------||
|----------------------------|-------------------|------------------||
|----------------------------|-----16----15--14--|-13--12--11--9-5--||
|----------------------------|-----16----15--14--|-13--12--11--9-5--||
|----------------------------|-----14----13--12--|-11--10---9--7-3--||
|-(0)--(0)----(0)----(0)-(0)-|-(0)---------------|------------------||


 Chorus
  +H..       E   H.      E  E
|--------------|--------------|
|--------------|--------------|
|-(5)--------x-|-7------------|
|-(5)--------x-|-7------------|
|-(3)--------x-|-5-------5s12-|
|--------------|--------------|


                           PM
   |--3--|  |--3--|  |--3--|  |--3--|    |--3--|  |--3--|
   E  E  E  E  E  E  E  E  E  E  E  E    E  E  E  E  E  E  +Q   E E
|-------------------------------------|----------11h14-12-(12)------|
|-------------------------------------|-11h12h14--------------------|
|-------------------11h12----11h12h14-|-----------------------------|
|----------11h12h14-------14----------|---------------------------5-|
|-11h12h14----------------------------|---------------------------3-|
|-------------------------------------|-------------------------0---|


                          \1/             \1/            \1/
  +W           H    Q  E +E     +Q    E  +E    +Q    E  +E
|------------|----------------|------------------------------|
|------------|----------------|------------------------------|
|------------|---------9-(9)--|-(9)--11-(11)--(11)--12-(12)--|
|-(5)--------|-7-------x------|-------x--------------x-------|
|-(3)--------|-5-------7-(7)--|-(7)---9--(9)---(9)--10-(10)--|
|------------|------0---------|------------------------------|


             \1/   |
   +Q    E  +E    +E    E   E E
|-------------------------------|
|-----------------------------5-|
|-(12)--14-(14)--(14)-(14)\---5-|
|--------x--------------------5-|
|-(10)--12-(12)--(12)-(12)\---3-|
|-----------------------0---0---|


  +H..       +E    H    +E  Q   a  E   E  a E Q   a E Q   a E   E E E E Q  E E
|----------------|-------------------|------------------------|----------------|
|-(5)--------(5)S|=7----(7)----------|------------------------|----------------|
|-(5)--------(5)S|=7----(7)----------|-9\-----7\------6\------|-4---2-1------5-|
|-(5)--------(5)S|=7----(7)----------|------------------------|---2-----2----5-|
|-(3)--------(3)S|=5----(5)-x\--xs11-|----xs9-----xs7-----xs5-|--------------3-|
|----------------|-------------------|------------------------|------------0---|


  +H     Q  Q    H.      E E
|--------------|-------------||
|--------------|-------------||
|-(5)----5-----|-------------||
|-(5)----5-----|-7-----------||
|-(3)----3--3S=|=5-------2s7-||
|--------------|-------------||


 Guitar Solo
                  PM
  |-3-| |-3-| |-3-| |-3-|   |-3-| |-3-| |-3-| |-3-|
  E E E E E E E E E E E E   E E E E E E E E E E E E
|-------------------------|--------------------------|
|-------------------------|--------------------------|
|-------------6h7---6-7-9-|-6h7---6-7-9-6h7---6-7-9--|
|-------6h7h9-----9-------|-----9-----------9--------|
|-6h7h9-------------------|--------------------------|
|-------------------------|--------------------------|


  |-3-| |-3-| |-3-|
  E E E E E E E E E E E      +E. +S  Q  E   Q.
|--------------------------|------------------------|
|--------------------------|---------------10b12====|
|-6h7---6------------------|------------------------|
|-----9---7-9-6h7---6------|------------x-----------|
|-----------------9---7b9==|=(7)r(7)p4--2/----------|
|--------------------------|------------------------|


                    T       T       T
              |----------9:8----------|
   +Q    +Q   S  S  S S  S  S S  S  T T
|----------------------------------------|
|-(10)r=(10)p=7h10-12p7h10-12p7h10-12p7s=|
|----------------------------------------|
|----------------------------------------|
|----------------------------------------|
|----------------------------------------|


       T      T      T      T      T
  |-------9:8--------| |-------9:8--------|
  S S  S S S  S S S  S S S  S S S  S S S  S
|-------------------------------------------|
|-6h9-12p6h9-12p6h9-12p5h8-12p5h8-12p5s4----|
|----------------------------------------h6-|
|-------------------------------------------|
|-------------------------------------------|
|-------------------------------------------|


                        T          ~~
  E E    +E  +E     +E  Q  E   +E  Q.   T T E.  Q
|----------------------------|-----------------10-----|
|-4--------------------------|-----------------13b15--|
|---6b8==(6)r(6)b8==(6)-9p=6r|=(6)p4----4sxp0---------|
|----------------------------|------------------------|
|----------------------------|------------------------|
|----------------------------|------------------------|


   Q.      E      +Q     Q         +E    Q.      S       E.    S   S E
|-12------13-----(13)---15------|-(15)--17-----------------------------|
|-15b17---16b18==(16)r--18b20===|=(18)r-20b22---21b25==(21)r-(21)\-----|
|-------------------------------|------------------------x-----x\----7s|
|-------------------------------|--------------------------------------|
|-------------------------------|--------------------------------------|
|-------------------------------|--------------------------------------|


                       |---3----|
   E     E  E  E      +E   +E   E  E  E
|-------10------------------------------|
|----------13-13b15==(13)r(13)p10----10-|
|-12b13---------------------------12----|
|---------------------------------------|
|---------------------------------------|
|---------------------------------------|


                                  \1/
              |---3----|                |---3----|
   E  E      +E   +E   E  E      +E    +E   +E   E
|--------------------------------------------------|
|--------------------------------------------------|
|-12-12b14==(12)r(12)p11-12b14==(12)--(12)r(12)p11h|
|--------------------------------------------------|
|--------------------------------------------------|
|--------------------------------------------------|

          \1/                       \1/
                 |---3----|
   E      +E    +E   +E   E  E      +E    +Q
|-----------------------------------------------|
|-----------------------------------------------|
|=12b14==(12)--(12)r(12)p11h12b14==(12)--(12)r--|
|-----------------------------------------------|
|-----------------------------------------------|
|-----------------------------------------------|


                                       |-----3-----|  |--3--|
   E  E  E  E      +E    E   +E   E    Q     Q     Q  Q  Q  Q
|----10-----------------------------|--------------------------|
|-10----13-13b15==(13)-(13)r(13)----|-13b15--------------------|
|-----------------------12--(12)p10-|-------12b13-12-11-10-----|
|-----------------------------------|----------------------12--|
|-----------------------------------|--------------------------|
|-----------------------------------|--------------------------|


   ~~
                         |-3-|
   H     +E   +E   Q     E E E E E E E E E
|---------------------||-------------------|
|---------------------||-------------------|
|---------------------||-6p5p3-------------|
|-12----(12)-(12)\-5--||-------5-5---3---3-|
|---------------------||-------------------|
|---------------------||-------------------|


          ~~~~~~~
                        |-3-|
  +E  +E  Q  +Q   E E   E E E E E E E E E
|---------------------|-------------------|
|---------------------|-------------------|
|---------------------|-6p5p3-------------|
|-(3)-(3)h5--(5)--5-5-|-------5-5---3---3-|
|---------------------|-------------------|
|---------------------|-------------------|


          PM~~
                     |-3-|
  +E  E E E Q.   E   E E E E E E E E E
|------------------|-------------------|
|------------------|-------------------|
|----------------0-|-8p7p5-------------|
|-(3)-------5------|-------7-7---5---5-|
|-----5-1-2--------|-------------------|
|------------------|-------------------|


                ~~~~~~~
                       |-3-|
  +E       +E   Q  +E. T T T  Q         Q      Q  Q  Q
|-------------------------------------|------------------|
|-------------------------------------|------------------|
|----------------------------[7]b9.5--|-5b5.5------------|
|-(5)b5.5==(5)rh7--(7)-----x--x-------|--------7--6--5---|
|------------------------x------------|------------------|
|----------------------x--------------|------------------|

[ Tab from: http://www.guitartabs.cc/tabs/v/van_halen/im_the_one_tab.html ]
                    Verse
  Q  Q  Q  Q         E E E E E E E E   E E E E E Q.     E E E E E E E E
|-----------------||-----------------|----------------|-----------------|
|-----------------||-----------------|----------------|-----------------|
|-----------------||-----------------|-----------5----|-----------------|
|-----------------||-------7-------5-|-------7---5----|-------7-------5-|
|-7--6--5--3b3.5--||-0-0-0---0-0-0---|-0-0-0---0------|-0-0-0---0-0-0---|
|-----------------||-----------------|----------------|-----------------|


                    ~~~~
  E E E E E E      +Q      E E E E E E E E   E E E E E  E  +Q
|------------------------|-----------------|---------------------|
|------------------------|-----------------|---------------------|
|------------------------|-----------------|------------5--(5)/--|
|-------7----------------|-------7-------5-|-------7---(5)-(5)/--|
|-0-0-0---0-3b3.5==(3)r--|-0-0-0---0-0-0---|-0-0-0---0-----------|
|------------------------|-----------------|---------------------|


                                 \1/
             |---3----|                |---3----|
  E  E      +E   +E   E  E      +E    +E   +E   E
|--------------------------------------------------|
|---20b22==(20)r(20)p17-20b22==(20)--(20)r(20)p17h=|
|-0------------------------------------------------|
|--------------------------------------------------|
|--------------------------------------------------|
|--------------------------------------------------|


       \1/           \0.5/
   |-----3------|             |-3-|
   Q  +Q       +Q   +Q       +E   Q    E E E E E E E E   E E E E E Q.
|------------------------------------|-----------------|--------------|
|-20-(20)b22==(20)r(20)-----(20)-----|-----------------|--------------|
|---------------------------------x\-|-----------------|-----------5--|
|--------------------------------17\-|-------7-------5-|-------7---5--|
|------------------------------------|-0-0-0---0-0-0---|-0-0-0---0----|
|------------------------------------|-----------------|--------------|


                                      ~~~~
  E E E E E E E E   E E E E E E      +Q      E E E E E E E E
|-----------------|------------------------|-----------------|
|-----------------|------------------------|-----------------|
|-----------------|------------------------|-----------------|
|-------7-------5-|-------7----------------|-------7-------5-|
|-0-0-0---0-0-0---|-0-0-0---0-3b3.5==(3)r--|-0-0-0---0-0-0---|
|-----------------|------------------------|-----------------|


                                            \1/   \1/
                                       |----3-----|
  E E E E E E +Q      E  E      +Q    +Q   +Q    +Q
|-------------------|---------------------------------|
|-------------------|---20-----(20)--(20)-(20)--(20)--|
|-----------5-(5)/--|-0-19b21==(19)--(19)-(19)--(19)--|
|-------7---5-(5)/--|---------------------------------|
|-0-0-0---0---------|---------------------------------|
|-------------------|---------------------------------|


    \1/   \1/   \1/   |
    |-----3-----|
   +Q    +Q    +Q    +Q    +Q
|---------------------------------||
|-(20)--(20)--(20)--(20)--(20)\---||
|-(19)--(19)--(19)--(19)--(19)r\--||
|---------------------------------||
|---------------------------------||
|---------------------------------||


 Chorus
  E  Q.    Q   Q     Q   Q  Q  E E
|-----------------|----------------|
|-----------------|----------------|
|-----------------|----------------|
|---14----13--12--|-11--10--9----7-|
|---12----11--10--|--9---8--7--6-5-|
|-----------------|----------------|


                                    \1.5____________/
              |----3----|
  +Q   +E  E +E  E  Q   Q     Q    +Q       +Q     +E    +E
|--------------------------|----------------------------------|
|-----------------------|----------------------------------|
|--------------------------|---()----()--()-()-|
|-(7)--(7)-x-(x)--------|----------------------------------|
|-(5)--(5)-----------------|----------------------------------|
|--------------------------|----------------------------------|


   +E    Q.    Q   Q     Q   Q  Q  E E   +H.      Q    Q  Q  Q  Q
|---------------------|----------------|-------------|--------------|
|---------------------|----------------|-------------|--------------|
|-()---------------|----------------|-------------|--------------|
|-------14----13--12--|-11--10--9----7-|-(7)---------|--------------|
|-------12----11--10--|--9---8--7--6-5-|-(5)------xS=|=xs=xs=xs=xs==|
|---------------------|----------------|-------------|-xs=xs=xs=xs==|


  E   Q.    Q   Q     Q   Q   Q   E E
|------------------|------------------|
|------------------|------------------|
|----16----15--14--|-13--12--11--10-9-|
|----16----15--14--|-13--12--11--10-9-|
|-x\-14----13--12--|-11--10---9---8-7-|
|-x\---------------|------------------|


                    \1.5_________/
  Q  q  H          +Q      +Q   +Q   +Q
|----------------|--------------------------|
|----------------|--------------------------|
|-9--0--9b12=====|=(9)-----(9)--(9)--(9)rs==|
|-9--------------|--------------------------|
|-7--------------|--------------------------|
|----------------|--------------------------|


                                      Chorus
  E  Q.    Q   Q     Q   Q   Q  E E    +H.      +E  E
|-----------------|-----------------||----------------|
|-----------------|---------------5-||-(5)------(5)sx-|
|-x-16----15--14--|-13--12--11--9-5-||-(5)------(5)sx-|
|---16----15--14--|-13--12--11--9-5-||-(5)------(5)sx-|
|---14----13--12--|-11--10---9--7-3-||-(3)------(3)sx-|
|-----------------|-----------------||----------------|


                  |--3--|  |--3--|  |--3--|  |--3--|
  H.      E  E    E  E  E  E  E  E  E  E  E  E  E  E
|--------------|----------15h17h19----------15h17h19-|
|-7------------|-15h17h19----------15h17h19----------|
|-7-------7s19-|-------------------------------------|
|-7------------|-------------------------------------|
|-5------------|-------------------------------------|
|--------------|-------------------------------------|


   |--3--|  |--3--|
   E  E  E  E  E  E      +E.  S  E E
|-15h17h19---------------------------|
|----------17----17b20==(17)r-x\-----|
|-------------16--------------x\---5-|
|----------------------------------5-|
|--------------------------------x-3-|
|--------------------------------0---|


                                                         |-3-|
  +H.      +E  E   H.      E E   S S S S S S S S S S S S E E E
|----------------|-----------5-|-9p7p5---5-9p7p5---5-9p7p5---5-|
|----------------|-------------|-------9---------9---------9---|
|-(5)------(5)sx-|-7-----------|-------------------------------|
|-(5)------(5)-x-|-7-----------|-------------------------------|
|-(3)------(3)sx-|-5-----------|-------------------------------|
|----------------|-------------|-------------------------------|


  E Q.   a  E. S E E   +H..       +E     S E. +E  E  E  E  Q
|-4p0----------------|-----------------|------------------19b22====|
|--------xs12\-----5-|-(5)--------(5)/-|---7--(7)------17----------|
|------------------5-|-(5)--------(5)/-|-x-7--(7)-7s18-------------|
|------------------5-|-(5)--------(5)/-|-x-7--(7)------------------|
|------------------3-|-(3)--------(3)/-|-x-5--(5)------------------|
|----------------0---|-----------------|-x-------------------------|


                               ~~~~~~~~~~
    |---3---|  |--3--|
   +Q    Q  Q  Q  Q  Q         Q     Q     Q   E E
|-(19)r-19-18-17-----------|-----------------------|
|----------------20-20b24==|=(20)--(20)r---------5-|
|--------------------------|---x-----------------5-|
|--------------------------|---------------------5-|
|--------------------------|---------------------3-|
|--------------------------|--------(0)---19\--0---|


  +H..       +E    H.      E  E
|----------------|---------0--------||
|-(5)--------(5)S|=7-------0-10b12==||
|-(5)--------(5)S|=7----------------||
|-(5)--------(5)S|=7----------------||
|-(3)--------(3)S|=5----------------||
|----------------|------------------||


 Guitar Solo
    |--3--|  |-3-|  |-3--| |-3--|   |-3--| |-3--|  |-3-|  |-3--|
   +E   E E  E E E  E E  E E E  E   E  E E E  E E  E E E  E E  E
|-------7-------------0-----------|-0-----------0-----------0----|
|-(10)r---7-10p7p0------10p7p0----|---10p7p0------10p7p0------10p|
|------------------10----------10-|----------10----------10------|
|---------------------------------|------------------------------|
|---------------------------------|------------------------------|
|---------------------------------|------------------------------|


  |-3--| |-3--|
  E E  E E  E E S  S S  S S S  S S
|--------0-----------0--------------|
|-7p0------10p7p0------10p7p0----7--|
|-----10----------10----------10----|
|-----------------------------------|
|-----------------------------------|
|-----------------------------------|


                    ~~~~
           |--3---|
  S E.    +E  +E  E Q     E  E
|-7--------------------------------|
|---------------------------10b12==|
|---9b11==(9)r(9)p7-9b11--0--------|
|----------------------------------|
|----------------------------------|
|----------------------------------|


        TPTPTPTP TP TP TP  TP TP TP  TP TP TPTP TP TPTP TP TPTP TP TP
          |-3-|  |--3--|   |--3--|   |--3--| |--3--| |--3--| |--3--|
   +E   E E E E  E  E  E   E  E  E   E  E  E E  E  E E  E  E E  E  E
|-------7-9-9-9-10-10-10/-12-12-12-|-9-10-12-9-10-12-9-10-12-9-10-12/--|
|-(10)r----------------------------|-----------------------------------|
|----------------------------------|-----------------------------------|
|----------------------------------|-----------------------------------|
|----------------------------------|-----------------------------------|
|----------------------------------|-----------------------------------|


   TP TP TP TP TPTP              ~~~~
   |--3--|  |-3--|                           |--3--|
   E  E  E  E  E E  H           +Q    +Q     E  E  E  E  E
|-10-12-14-12-14-x-12b14=====|=(12)--(12)r\----------12--------|
|----------------------------|---------------4s13s14----15b17==|
|----------------------------|---------------------------------|
|----------------------------|---------------------------------|
|----------------------------|---------------------------------|
|----------------------------|---------------------------------|


    ~~~~~    ~~~~~~~~~~~~
                             |--3--|
   +Q     E  E      +E    E  E  E  E
|--------12--------------12-15p12-15p=|
|-(15)r-----15b17==(15)r--------------|
|-------------------------------------|
|-------------------------------------|
|-------------------------------------|
|-------------------------------------|


   |--3--|  |--3--|  |--3--|  |--3--|
   E  E  E  E  E  E  E  E  E  E  E  E
|-12----14p12----12-------------------|
|----15-------15----15-14p12----14p12-|
|----------------------------15-------|
|-------------------------------------|
|-------------------------------------|
|-------------------------------------|


                                              ~~~~~~
   |--3--|  |--3--|  |--3--|  |----3-----|
   E  E  E  E  E  E  E  E  E  E     +E   E    Q.        E   E. S  E E
|------------------------------------------|---------------------------|
|----12------------------------------------|---------------------------|
|-14----15p14p12----14----12-14b16r(14)p12-|-14b16====(14)rs4--7s16----|
|----------------14----14------------------|------------xs==x----------|
|------------------------------------------|---------------------------|
|------------------------------------------|---------------------------|


   |--3--|  |--3--|  |--3--|  |--3--|    |--3--|  |----3-----|
   E  E  E  E  E  E  E  E  E  E  E  E    E  E  E  E  E      +E   +E.  +S   E  E
|----------15-17-19----------15-17-19-|----------15-17b19==(17)-(17)r(17)-------|
|-15h17h19----------15h17h19----------|-15h17h19--------------------------------|
|-------------------------------------|-----------------------------------16\---|
|-------------------------------------|-----------------------------------------|
|-------------------------------------|-----------------------------------------|
|-------------------------------------|-----------------------------------------|


                            ~~
   E  E      +E    S   +S   Q   +Q      Q  Q   Q   Q
|-------------------------------------|-----------------||
|-12-15b17==(15)-(15)r(15)------------|-----------------||
|-----------------14--(14)-12--(12)\--|-----------------||
|-------------------------------------|-----------------||
|-------------------------------------|-7--9--10--11----||
|-------------------------------------|-----------------||


   Q  Q  H      Wx15
|-------------|---------||
|-------------|---------||
|-------------|---------||
|-14----------|---------||
|-12----------|---------||
|-------------|---------||


  |-3-|     |-3-|        |-3-|      |-3--|         |-3--|       |--3--|
  E E E E E E E E E E    E E E E E  E  E E  E E    E  E E  E E  E  E  E  E  E
|---------------------|-------------------------|-----------------------------|
|---------------------|-------------------------|-----------------------------|
|-8p7p5---5-9p8p6---6-|-10p9p7---7-11p10p8----8-|-12p11p9----9-13p12p10----10-|
|-------7---------8---|--------9-----------10---|---------11------------12----|
|---------------------|-------------------------|-----------------------------|
|---------------------|-------------------------|-----------------------------|


                               Out-Chorus
   |--3--|
   E  E  E  Q.       E a E E    +H..       +E    H.      E E
|----------------------------||----------------|-------------|
|--------------------------5-||-(5)--------(5)S|=7---------9-|
|-14p13p11-----------------5-||-(5)--------(5)S|=7---------9-|
|----------13tr14----------5-||-(5)--------(5)S|=7---------9-|
|-------------------12s3p0-3-||-(3)--------(3)-|-5-------7---|
|----------------------------||----------------|-------------|


           \1____________________/
  +Q   Q  +Q    +Q     +H.      +E  E   +W
|--------------------|----------------|--------|
|-(9)----------------|--------------5-|-(5)----|
|-(9)----------------|--------------5-|-(5)----|
|-(9)----------------|--------------5-|-(5)----|
|--------------------|--------------3-|-(3)----|
|------0--(0)---(0)--|-(0)------(0)---|--------|


  H    Q  E E   +Q   E  E  +Q   E E   +Q   E  E  +Q    E E
|-------------|---------------------|----------------------|
|-7----7----9-|-(9)----10-(10)----9-|-(9)----10-(10)\----5-|
|-7----7----9-|-(9)-----9--(9)----9-|-(9)-----9--(9)\----5-|
|-7----7----9-|-(9)-----9--(9)----9-|-(9)-----9--(9)\----5-|
|-5----5--7---|------7----------7---|------7-------------3-|
|-------------|---------------------|------------------0---|


                            \1/    |        \1/   |        \1/
  +H..       E   H    Q  E +E     +Q    E  +E    +Q    E  +E
|--------------|----------------|------------------------------|
|-(5)--------x-|-7--------------|------------------------------|
|-(5)--------x-|-7-------9-(9)--|-(9)--11-(11)--(11)--12-(12)--|
|-(5)--------x-|-7-------x-(x)--|-------x--(x)---(x)---x--(x)--|
|-(3)--------x-|-5----0--7-(7)--|-(7)---9--(9)---(9)--10-(10)--|
|--------------|------0---------|------------------------------|


                          H.=H
    |        \1/   |                                           \2.5/
   +Q    E  +E    +Q    E E   +H..       E   H    +E   E   E  +E
|---------------------------|--------------|-------------------------||
|-------------------------5-|-(5)--------xS|=7----(7)----------------||
|-(12)--14-(14)--(14)\----5-|-(5)--------xS|=7----(7)----------------||
|--------x--(x)-----------5-|-(5)--------xS|=7----(7)----------------||
|-(10)--12-(12)--(12)\----3-|-(3)--------xS|=5----(5)--xs==x---------||
|-----------------------0-3-|-(3)--------xS|=5----(5)-(5)s12-(12)----||


 Free Time
  TP
  H    a  T  T  T     T  S     +T   T  T  T  T  T  T  T  T  T
|-----------12-------12---------------------------12----------:
|--------------15b17----15b17r(15)p12----12-15p12----12-15p12-:
|-9----xs13---------------------------14----------------------:
|-9-----------------------------------------------------------:
|-7-----------------------------------------------------------:
|-0-----------------------------------------------------------:


                                                                                                                 H.=H
                                       |------6-------|  |------6-------|  |------6-------|  |----------9:8----------|
   T  T  T  T  T  T  T  T  T  T  T  T  T  T  T  T  T  T  T  T  T  T  T  T  T  T  T  T  T  T  T  T  T  T  T  T  T  T  T
|-----------------------------------------------------------------------------------------------------------------------:
|----12-----------------------------------------------------------------------------------------------------------------:
|-14----15-14p12----14----11h12p11----11-12-14p12p11----11-12-14p12p11----11-12-14p12p11----11--------------------------:
|----------------14----14----------14----------------14----------------14----------------14----12-14-11h12p11----11-----:
|-------------------------------------------------------------------------------------------------------------14----12s=:
|-----------------------------------------------------------------------------------------------------------------------:


              \6_________/
   |-3-|                        |-3-|
   S S S  S S Q    +Q   +E. +T  X X X
|-------------------------------------:
|-------------------------------------:
|-------------------------------------:
|-----------------------------------x-:
|-11s9s7s10s7---------------------x---:
|-------------0----(0)--(0)-(0)-x-----:


              \1/      \1.5/      \1.5/      \1.5/      \1.5/      \1.5/
  Q      +S  +S   +S  +S     +S  +S     +S  +S     +S  +S     +S  +S
|------------------------------------------------------------------------:
|------------------------------------------------------------------------:
|-9b12===(9)-(9)--(9)-(9)----(9)-(9)----(9)-(9)----(9)-(9)----(9)-(9)----:
|------------------------------------------------------------------------:
|------------------------------------------------------------------------:
|------------------------------------------------------------------------:


       \1.5/      \1.5/      \1.5/      \1.5/      \1.5/      \2.5_______/
   S  +S     +S  +S     +S  +S     +S  +S     +S  +S     +E  +S     +S  +S  +S
|-------------------------------------------------------------------------------:
|-------------------------------------------------------------------------------:
|-(9)-(9)----(9)-(9)----(9)-(9)----(9)-(9)----(9)-(9)----(9)-(9)----(9)-(9)-(9)-:
|-------------------------------------------------------------------------------:
|-------------------------------------------------------------------------------:
|-------------------------------------------------------------------------------:


  S  E. Q  H
|-7-------------*|
|-7\------------*|
|-7-------------*|
|-6\------------*|
|-7\------------*|
|---------------*|
Comments