Van Halen - Hot For Teacher Chords & Tabs

 

Hot For Teacher Chords & Tabs

Van Halen Chords & Tabs

Version: 1 Type: Bass Tab 0 ratings
1 star 2 stars 3 stars 4 stars 5 stars
comments

Hot For Teacher Bass Tab

   
Song: Hot For Teacher
Band: Van Halen (Edward Van Halen, Alex Van Halen, Michael Anthony, David Lee Roth)
Tabber: Jordash - ktulu@ultra.net.au

Intro:

  F#                                                    E     A 
G:-------------------------------------------------------------
D:-------------------------------------------------------------
A:-------------------------------------------------------------
E:-2222222222220202--2222222222-/-12-\-2222222222220202-0-0-0-5


Verse:

  A
G:-------------------------------------------------------------
D:-----------------------------5-------------------------------
A:-------------365--------------65-----------------------------
E:-555555555555----555555555555--------------------------------

  A
G:-------------------------------------------------------------
D:-----------------------------7-------------------------------
A:-------------365--------------65-----------------------------
E:-555555555555----555555555555--------------------------------


Pre-chorus I:

  I think of all the education...
   A                 D                G  
G:-------------------------------------------------------------
D:--------------------------------653-5------------------4-5---
A:--------------653--555555555555----------------2-3-4-5-------
E:-555555555555------------------------3333333333--------------


Breakdown:
 
G:-------------------------------------------------------------
D:-------------------------------------------------------------
A:--------------------------6--7-------------------------------
E:-66--55--44--33--2--1--0-------------------------------------

Chorus:

I've got it made...
  A                                                  E       A
G:-------------------------------------------------------------
D:-----------------------------5-------------------------------
A:-------------365--------------65--------------365------------
E:-555555555555----555555555555----555555555555------0-0-0-/-5-


-repeat verse-


Pre-chorus II:
[ Tab from: http://www.guitartabs.cc/tabs/v/van_halen/hot_for_teacher_btab.html ]
  I think of all the education...
   A                 D                  G  
G:-------------------------------------------------------------
D:----------------------------------------5----5----5----5-----
A:--------------653--555555555---------------------------------
E:-555555555555---------------2345-431--3---33---33---33-------

-repeat breakdown-


Chorus:

I've got it made...
  A
G:-------------------------------------------------------------
D:-----------------------------5-------------------------------
A:-------------365--------------65--------------365------------
E:-555555555555----555555555555----555555555555------0-0-0-5/12


Solo:

  F#               E
G:--------------------------------|
D:---4---4---4---4---2---2--------| -repeat 3 times-
A:---------------------------023--|
E:-2---2---2---2---0---0---2------|

  F#                          F#
G:----------------------------------11---11---11---------------
D:---4---4---4---4---4---4----4--4-----------------------------
A:------------------------------------9-----9----9\------------
E:-2---2---2---2---2---2-----2--2------------------------------


  B                      B                   
G:-------------------------------------------------------------
D:-----------4--4------------------4--4-4----------------------
A:-222220-----------023--2222220---------432-------------------
E:-------40-2--2--2-------------4-2--2-------------------------


   B                       E      A
G:-------------------------------------------------------------
D:--------------4--4-------------------------------------------
A:-2222220-----------0234--------------------------------------
E:---------42-2--2---------0-0-0--5----------------------------



-repeat verse-


Outro verse:
  A
G:---------------------------|
D:---------------------------| -repeat-
A:---33------33-----33-------|
E:-5---5--5----5--5---5---234|

                    G
G:-----------------|------------------
D:-----------------|--5-5-5-5-5-5-5-5-
A:-----------------|------------------
E:-5-2345-2345-2345|-3-3-3-3-3-3-3-3--


  Ending:

   A     G      E     C     A  
G:-------------------------------------------------------------
D:-7-----5------2----------------------------------------------
A:--------------------3-----0----------------------------------
E:-------------------------------------------------------------
Comments