Van Halen - Cabo Wabo Chords & Tabs

 

Cabo Wabo Chords & Tabs

Van Halen Chords & Tabs

Version: 2 Type: Tab 0 ratings
1 star 2 stars 3 stars 4 stars 5 stars
comments

Cabo Wabo Tab

***Edited by Tony Wray***

This is not my tab, I am just correcting an error.

The following Intro is incorrect:

:----------|--x-x-----------|----------------|--x-x-----------|
:----------|--x-x-----------|2-2-3-----------|--x-x-----------|
:----------|--x-x-----------|2-2-2-----------|--x-x-----------|
:----------|2-x-x-----------|2-2-4-----------|2-x-x-----------|
:------2H5-|2-x-x-------2H5-|0-0-0-------2H5-|2-x-x-------2H5-|
:0-3H5-----|0-x-x-0-3H5-----|------0-3H5-----|0-x-x-0-3H5-----|
[ Tab from: http://www.guitartabs.cc/tabs/v/van_halen/cabo_wabo_tab_ver_2.html ]
                       repeat 3x
:-------------------|--x-x-----------||
:2-2-3--------------|--x-x-----------||
:2-2-2--------------|--x-x-----------||
:2-2-4--------------|2-x-x-----------||
:0-0-0---------10-7-|2-x-x-------2H5-||
:------\7-10-7------|0-x-x-0-3H5-----||



This is what it should be:

:----------|--x-x-----------|----------------|--x-x-----------|
:----------|--x-x-----------|2-2-3-----------|--x-x-----------|
:----------|--x-x-----------|2-2-2-----------|--x-x-----------|
:----------|2-x-x-----------|2-2-4-----------|2-x-x-----------|
:------2H5-|2-x-x-------2H5-|0-0-0-------2H5-|2-x-x-------2H5-|
:0-3H5-----|0-x-x-0-3H5-----|------0-3H5-----|0-x-x-0-3H5-----|


                       repeat 3x
:-------------------|--x-x-----------||
:2-2-3--------------|--x-x-----------||
:2-2-2--------------|--x-x-----------||
:2-2-4--------------|2-x-x-----------||
:0-0-0----10-7------|2-x-x-------2H5-||
:------\7------10-7-|0-x-x-0-3H5-----||
Comments