Van Halen - Best Of Both Worlds Chords & Tabs

 

Best Of Both Worlds Chords & Tabs

Van Halen Chords & Tabs

Version: 2 Type: Tab 0 ratings
1 star 2 stars 3 stars 4 stars 5 stars
comments

Best Of Both Worlds Tab

   
Band- Van Halen
Album- Best Of Both Worlds

1.ERUPTION

----------------------------------------------------------5---------------|
--------------------------------------------------------5-5-8^5^0---------|
\--2------------------------------5--7^(8)^7--5--7^(9)-------------8------|
\--2------------------------5--7------------------------------------------|
\--0------------7^(9)^7^(9)-----------------------------------------------|
--------------------------------------------------------------------------|

                                                    gliss
------------------------------------------------5-------------------------|
--5^8^5^0--5^8^5^0--5^8^5^0--5^8^5^0--------5---8-5-------5---------------|
--------------------------------------7^(8)------------7----7^(8)^7^5-----|
------------------------------------------------------0^----------------6-|
--------------------------------------------------------------------------|
--------------------------------------------------------------------------|

                                                          slight ritard
--------------------------------------------------------------------------|
-----------------------------------------4--------------------------------|
---4---5---7---5-7^5^4----4^7^5^4----4^7^5--4--7--4^7^5^4-----4-----------|
-----------------------7----------7------------------------7----7-6-5-4---|
--------------------------------------------------------------------------|
--------------------------------------------------------------------------|

                             ritard
----------------------------------------------------------------------------|
---------------------------------------------------------------3---3--------|
-----------------------------0-----------------------------2---0---2---2/---|
-----------------------------------------------------------2---0---0--------|
---7-6-5-3----------------------3-----0^2^0^2^0^2^0^1^0----0----------------|
-------------5\16-0-^-5-^-3------------------------------------3------------|

----------17---------17---------17---------17--------17-20-21----20-17----|
--20^(22)----20^(22)----20^(22)----20^(22)-----20-------------19----------|
--------------------------------------------------0-----------------------|
--------------------------------------------------------------------------|
--------------------------------------------------------------------------|
--------------------------------------------------------------------------|

----------------------17---------17---------17---------17-----------------|
---19^(22)^19^20^(22)----20^(22)----20^(22)----20^(22)----20--------------|
-------------------------------------------------------------0------------|
--------------------------------------------------------------------------|
--------------------------------------------------------------------------|
--------------------------------------------------------------------------|

---17-20-21----20-17-----------------17---------17-20^(21)^20^17^---17----|
------------19-------19^(22)^19^(20)----21^(22)------------------20-------|
--------------------------------------------------------------------------|
--------------------------------------------------------------------------|
--------------------------------------------------------------------------|
--------------------------------------------------------------------------|

--------------------------------------------------------------------------|
---20^(22)^20^17----20^(22)^20^17--20^(22)^20^17----20^(22)^20^(22)\------|
-----------------19------------------------------19-----------------------|
--------------------------------------------------------------------------|
--------------------------------------------------------------------------|
--------------------------------------------------------------------------|

                                  gliss
---------------16^17^20--------------17-20-17^20^17^14-15^14^--------------|
------16^18^20-------------17^20---X^------------------------17^14---------|
--/18-------------------18--------X--------------------------------17^(18)-|
---------------------------------------------------------------------------|
---------------------------------------------------------------------------|
---------------------------------------------------------------------------|


--------------------------------------------------------------------------|
--14-------------------------------------------------------17-------------|
-----18^(19)^18^14-17^14^17^14^17^14\------19^(21)^19^(21)----19^(21)-----|
--------------------------------------------------------------------------|
--------------------------------------------------------------------------|
--------------------------------------0\----------------------------------|

     fast picking
------------16-16-16-16-19-19-19-17-17-17-16-16-16-17-17-17-17------------|
---17-17-17----------------------------------------------------19-19-19---|
--------------------------------------------------------------------------|
--------------------------------------------------------------------------|
--------------------------------------------------------------------------|
--------------------------------------------------------------------------|

---16-16-16----------16-16-16-19-19-19-17-17-17-16-16-16-17-17-17----------|
------------17-17-17----------------------------------------------19-19-19-|
---------------------------------------------------------------------------|
---------------------------------------------------------------------------|
---------------------------------------------------------------------------|
---------------------------------------------------------------------------|

---16-16-16---12-12-12-14-12\10-10-10-10-12-10\9-9-9-10-9\7-7-7-9-7\5-5-5-|
--------------------------------------------------------------------------|
--------------------------------------------------------------------------|
--------------------------------------------------------------------------|
--------------------------------------------------------------------------|
--------------------------------------------------------------------------|

                                                                ritard
---7-5\3-3-3-5-3--1-1-1-1-1-1-1-1-1^3^1\0---------------------------------|
------------------------------------------5^3^1^0-------------------------|
--------------------------------------------------2(4)^2\1----------------|
--------------------------------------------------------------------------|
------------------------------------------------------------2/------------|
-----------------------------------------------------------------0-13-0---|
                                                                  ~  ~
                                                        trill
--------------------------------------------------------------------------|
-------------------------------------6^0^5-------8^0^7--5^(7)-------------|
--------------------5^0--------5-0-4^------7^0^5--------------------------|
-------5^7-7-7-7-7-------7-7-7--------------------------------------------|
---/7---------------------------------------------------------------------|
--------------------------------------------------------------------------|

--------------------------------------------------------------------------|
--------------------------------------------------4^0---------------------|
------------------------------------5^0^4--------------6--4^(6)----4^0----|
-----------------5^0----------5^0----------7-4-4--------------------------|
------5^7-7-7-7-------7-7-7-7-----7---------------------------------------|
---/7---------------------------------------------------------------------|

--------------------------------------------------------------------------|
--------------------------------------------------------------------------|
-------------------5^0----------5^0^---6-0-5-------8----------------------|
-------5^7-7-7-7-7------7-7-7-7-----8--------7-0/5----10------------------|
---/7---------------------------------------------------------------------|
--------------------------------------------------------------------------|

--------------------------------------------------------------------------|
--------------------------------------------------------------------------|
---9^11^9^11^9^11^9\7^9^7^9^7\5^7^5^7^5\4^6^4^6^4^6-----------------------|
--------------------------------------------------------------------------|
--------------------------------------------------------------------------|
--------------------------------------------------------------------------|

--------------------------------------------------------------------------|
--------------------------------------------------------------------------|
---18^6^9-13^6^9-13^6^9-13^6^9-13^6^9-13^6^9-13^6^9-13^6^9----------------|
--------------------------------------------------------------------------|
--------------------------------------------------------------------------|
--------------------------------------------------------------------------|

--------------------------------------------------------------------------|
--------------------------------------------------------------------------|
---14^6^9-14^6^9-14^6^9-14^6^9-14^6^9-14^6^9-14^6^9-14^6^9^8--------------|
--------------------------------------------------------------------------|
--------------------------------------------------------------------------|
--------------------------------------------------------------------------|

             repeat 3x                             repeat 4x
--|--------------------|-----------------|-------------------|------------|
--|--------------------|-----------------|-------------------|------------|
--|: -14^8^11-14^8^11 :|-16^8^11-16^8^11-|: 16^9^13-16^9^13 :|------------|
--|: ---------------- :|-----------------|: --------------- :|------------|
--|--------------------|-----------------|-------------------|------------|
--|--------------------|-----------------|-------------------|------------|

             repeat 3x                             repeat 3x
--|--------------------|--------------------|---------------------|-------|
--|--------------------|--------------------|---------------------|-------|
--|: -17^9^12-17^9^12 :|-19^9^13-19^9^13^11-|: 19^11^14-19^11^14 :|-------|
--|: ---------------- :|--------------------|: ----------------- :|-------|
--|--------------------|--------------------|---------------------|-------|
--|--------------------|--------------------|---------------------|-------|

                                  repeat 3x
--|-------------------|---------------------|-----------------------------|
--|-------------------|---------------------|-----------------------------|
--|-21^11^14-21^11^14-|: 21^16^13 21^16^13 :|-----------------------------|
--|-------------------|: ----------------- :|-----------------------------|
--|-------------------|---------------------|-----------------------------|
--|-------------------|---------------------|-----------------------------|

                change feel
--------------------------------------------------------------------------|
--------------------------------------------------------------------------|
--21^13--21^13--21^13^16--21^13^16--21^13^16--21^13^16--21^16-------------|
--------------------------------------------------------------------------|
--------------------------------------------------------------------------|
--------------------------------------------------------------------------|

--------------------------------------------------------------------------|
--------------------------------------------------------------------------|
--21^16^19--21^15^18--21^15^18--21^14^17--21^13^16--21^13^16--------------|
--------------------------------------------------------------------------|
--------------------------------------------------------------------------|
--------------------------------------------------------------------------|

--------------------------------------------------------------------------|
--------------------------------------------------------------------------|
---19--21^16^19--21^16^19--21^15^18--21^15^18--21^14^17--21^14^17---------|
--------------------------------------------------------------------------|
--------------------------------------------------------------------------|
--------------------------------------------------------------------------|

--------------------------------------------------------------------------|
--------------------------------------------------------------------------|
---21^13^16--21^13^16--21^14^17--19^14^17--19^13^16--19^13^16--19^12^15---|
--------------------------------------------------------------------------|
--------------------------------------------------------------------------|
--------------------------------------------------------------------------|

--------------------------------------------------------------------------|
--------------------------------------------------------------------------|
---19^12^15--19^11^14--19^11^14--16/17^15^17^12^15--17^11^14--17^11^14----|
--------------------------------------------------------------------------|
--------------------------------------------------------------------------|
--------------------------------------------------------------------------|

                                                       repeat 8x
--------------------------------------------|---------------------|---------|
--------------------------------------------|---------------------|---------|
---17^10^13--17^10^13--17^9^12--17^9^12--16^|: ^8^11-16^8^11-16^ :|---------|
--------------------------------------------|: ----------------- :|---------|
--------------------------------------------|---------------------|---------|
--------------------------------------------|---------------------|---------|

               repeat 8x            repeat 8x             repeat 8x
---|---------------------|--------------------|---------------------|-----|
---|---------------------|--------------------|---------------------|-----|
---|: ^9^12-16^9^12-10^ :|: 8^11-16^8^11-16^ :|: ^9^12-16^8^11-16^ :|-----|
---|: ----------------- :|: ---------------- :|: ----------------- :|-----|
---|---------------------|--------------------|---------------------|-----|
---|---------------------|--------------------|---------------------|-----|

           slow *
----------------------------||
----------------------------||
---^9/----------------------||
----------------------------||
----------------------------||
--------\0------0--^--12^---||

   *  Hit the low E string, 12th fret, with right-hand index finger,
      causing harmonic.

2.ITS ABOUT TIME

Intro x2 w/Bass Then 4x when drums enter.
C|-2-2-2-2-3-2-2-2-2-3-|
G|-2-2-2-2-3-2-2-2-2-3-|
C|-2-2-2-2-3-2-2-2-2-3-|
   + + + + = + + + + =
Begining Of The Verse Is Harmonics w/Distortion

D|-7*-5*-----------|
A|------7*-5*------|
F|-----------7*-5*-|

Verse
F|-----------------3^~----------------3^~-----------|
C|-2-x-2-x-2-x-2-x----2-x-2-x-2-x-2-x----2-x-2-x-2-x|
G|-2-x-2-x-2-x-2-x----2-x-2-x-2-x-2-x----2-x-2-x-2-x|
C|-2-x-2-x-2-x-2-x----2-x-2-x-2-x-2-x----2-x-2-x-2-x|

Pre-Chorus - Press Down On Whammy On Last Harmonic
D|-7*-5*-------------|
A|-------7*-5*-------|
F|-------------7*-5*-|

Chorus - Repeat As Needed
C|-2-x-3-2-x-3-2-2-2-2-x-x-x-x-|
G|-2-x-3-2-x-3-2-2-2-2-x-x-x-x-|
C|-2-x-3-2-x-3-2-2-2-2-x-x-x-x-|


Brigde 1 (Just Before Solo  Begins) - Repeat As Needed
F|-----------------4^-2^---|
C|----------------2-----3^-|
G|-2-3^-2x-2-3^-2x---------|
C|-2-3^-2x-2-3^-2x---------|

3.UP FOR BREAKFAST

Don't Know

4.LEARNING TO SEE

Don't Know

5.AINT TALKIN BOUT LOVE

 am     dm7        g      [use pinched harmonics on these notes]

------------1-------3--------------------------------|
--------1-----1--------3-----------------------------|
---------2-----2-------------------------------------|x 3
-------2---------------------------------------------|
-----0-----------------------[3-2h3p2-0]-------------|
-------------------------3-0-------------------------|
   (          pm            )


   am   dm7     G
--------1-----3---------------------------------------|
-----1----1-----3-------------------------------------|
-------2---2-----------5-/-7-/-9-/-12-----------------|
----2-------------------------------------------------|
--0---------------------------------------------------|
------------------3-0---------------------------------|

   am   am    am  G      [pinch harmaonics]
------------------3----------------------------------|
---1-x--1--x--1---3----------------------------------|
---2-X--2--x- 2--------------------------------------|
---2-x--2--x- 2---------------------------------- ---|
------------------2------[3-2h3p2-0]-----------------|
------------------3----0-----------------------------|
  (    pm       )

     am     dm7        g      [use pinched harmonics on these notes]

------------1-------3--------------------------------|
--------1-----1--------3-----------------------------|
---------2-----2-------------------------------------|x 3
-------2---------------------------------------------|
-----0-----------------------[3-2h3p2-0]-------------|
-------------------------3-0-------------------------|
   (          pm            )


     am     dm7        G
------------1-------3------------------------------------|
--------1-----1--------3----------5-bu-7--rprp-ld-5-3--0-|
---------2-----2-----------------------------------------|
-------2-------------------------------------------------|
-----0---------------------------------------------------|
-------------------------3-0-----------------------------|
   (          pm            )

   am
-----------1---3------------------------------------------|
-----1-----1---3------------------------------------------|
------2---------------------------------------------------|x 4
----2-----------------------------------------------------|
---0------------------------------------------------------|
----------------------------------------------------------|

[solo]all slides up to tripets bit
-----------------------------------------------------------|
--5---8---10-10-10---8-5-5---5---8---10-10-20-12-10-8--5-5-|
-----------------------------------------------------------|
-----------------------------------------------------------|
-----------------------------------------------------------|
-----------------------------------------------------------|


----------------------------------------------------------|
--5--8---10-10-10-12-12-10-8-5-5-5-8-10-10-10-12-13-15----|
----------------------------------------------------------|
----------------------------------------------------------|
----------------------------------------------------------|
----------------------------------------------------------|

rock triplets
-12-h-15-p-12-------------------------------------------|
---------------15---------------------------------------|
--------------------------------------------------------|x 4
--------------------------------------------------------|
--------------------------------------------------------|
--------------------------------------------------------|

--------15-----------------------------------------------|
--12-14-bu-rp--ld-12-------------------------------------|
---------------------15----------------------------------|
---------------------------------------------------------|
---------------------------------------------------------|
---------------------------------------------------------|


break down

--------------- ------------------------------------------|
--1-x-1------nh------5------------------------------------|
--2-x-2------nh-----5-------------------------------------|
--2-x-2------nh----5--------------------------------------|x4
-------------nh---5---------------------------------------|
----------------------------------------------------------|

    am     dm7        g      [use pinched harmonics on these notes]

------------1-------3--------------------------------|
--------1-----1--------3-----------------------------|
---------2-----2-------------------------------------|x 3
-------2---------------------------------------------|
-----0-----------------------[3-2h3p2-0]-------------|
-------------------------3-0-------------------------|
   (          pm            )


   am   dm7     G
--------1-----3---------------------------------------|
-----1----1-----3-------------------------------------|
-------2---2-----------5-/-7-/-9-/-12-----------------|
----2-------------------------------------------------|
--0---------------------------------------------------|
------------------3-0---------------------------------|

   am   am    am  G      [pinch harmaonics]
------------------3----------------------------------|
---1-x--1--x--1---3----------------------------------|
---2-X--2--x- 2--------------------------------------|
---2-x--2--x- 2---------------------------------- ---|
------------------2------[3-2h3p2-0]-----------------|
------------------3----0-----------------------------|
  (    pm       )

6.FINISH WHAT YA STARTED

------------------0-0-0-------------------------------0-0------------|
------------------0-3-3---------------------0-2^-2-^--3-3------------|
-------2-4----------4-4-----------2-4-------0-2^-2-^--4-4--------2-4-|
-0-2-5-----5^-2-------------0-2-5-----5^-2-----------------0-2-5-----|
---------------------------------------------------------------------|
---------------------------------------------------------------------|
           [all ^ are 1/4 step bends]

------0--0-0--------------------------3^3^-0-3^3^--------------------|
------0--3-3------------------0-2^-2^-2^2^-0-2^2^--------------------|
---------4-4--------2-4-------0-2^-2^-------------------2-4----------|
5^-2----------0-2-5-----5^-2----------------------0-2-5-----5^-2-----|
---------------------------------------------------------------------|
---------------------------------------------------------------------|

    Come on baby                                                Ow
0-0-------0-0------------------------0-0-0---0-----------------0-0-0-|
0-0--3-3^-0-0-----------------0-2-2^-3-3-3---3-----------------0-3-3-|
-----4-4^------------2-4------0-2-2^-4-4-4---4-------2-4---------4-4-|
---------------0-2-5-----5^-2------------------0-2-5-----5^-2--------|
---------------------------------------------------------------------|
---------------------------------------------------------------------|
                             Woah, Woah
0-0---0-0-------------------0---0--0-0----0--0--0---------------------|
3-3---3-3---------0-2---2---3---3--3-3^---0--3--3---------------0-2-2-|
4-4---4-4--2-4-0--0-2---2---4---4--4-4^------4--4-------2-4-----0-2-2-|
--------------------------------------------------0-2-5-----5^2-------|
----------------------------------------------------------------------|
----------------------------------------------------------------------|

0--0---------0--0--0-0-0-------------------------0--3^-3^0-3^3^0-3----|3^
3--3---------3--0--3-3-3----------------0-2---2--3--2^-2^0-2^2^0-2----|2^
4--4-------2-4-----4-4-4-------2-4------0-2---2--4--------------------|
-----0-2-5---------------0-2-5-----5^2--------------------------------|
----------------------------------------------------------------------|
----------------------------------------------------------------------|

Well if you wanna         baby I could            You wanna lover
        See other guys    let it slide             You want a friend
0--0---0-----------------------0-----------------0--0--0--------------|
0--3---3---------------0-2--2^-3-----------------0--3--0--------------|
---4---4-------2-4---0-0-2--2^-4--------2-4---------4----------2-4--0-|
---------0-2-5-----5^0----------------------5^0----------0-2-5----5^0-|
----------------------------------------------------------------------|
----------------------------------------------------------------------|

mama I can be                     I got
both of them                       the tools to satisfy.         Just
---------0-----------------------------------------------------------|
0-2--2^--3-----2----------------4~-2--4~----2------------------2~----|
0-2--2^--4-----2-------2-4------4~-2--4~----2---------2-4---0--2~-0--|
-----------------0-2-5-----5^2--4~----4~-------0-2-5------5^0--2~-0--|
---------------------------------------------------------------------|
---------------------------------------------------------------------|

walk
  away                   If I fall        shy  at     all
----------------------------------------------------------------------|
----2~--------------------5--5----5---5------------------3------------|
-0--2~---0-2--------------6--6----6---6------------------2------------|
-0--2~---0-2-----2--------6--6----6---6--------2---------0------------|
-------------3/4---4\2-0--4--4--4-4---4--2-3/4---4\2-0------3-2^-0----|
-------------------------------------------------------------------1--|

ah...               Come on
                       baby finish what               I'm
                                      ya started        Incomplete
-----------------------0----0-----0-------------------------0--------|
3-------------3^-3^----0----3-----3----------------0-2--2^--3--------|
2---------2---2^-2^---------4-----4-------2-4------0-2--2^--4--------|
0---0-2-5---5-----------------------0-2-5-----5^2--------------------|
---------------------------------------------------------------------|
---------------------------------------------------------------------|

0------------------|
3------------------|
4-------2-4--------|
--0-2-5-----5^2----|
-------------------|
-------------------| and so on using these riffs up to the solo:


SOLO
----14-----12-----11-----9-----7----5-----0-----0-----0--------14---12-|
-----------------------------------------------------------------------|
-/15----13-----11------9----07----07---04----09----07---0--/15----13---|
-----------------------------------------------------------------------|
-----------------------------------------------------------------------|
-----------------------------------------------------------------------|

---11----9-----5-----7-----5-----7-----5------14----12---11---9----7-|
---------------------------------------------------------------------|
11-----9----07----07----07----07----------/15----13----11---9---07---|
----------------------------------04/5-------------------------------|
---------------------------------------------------------------------|
---------------------------------------------------------------------|

---5----0---0---0----0-------14----12---11---9----5----7-----5-------|
------------------------------------------------------------------7--|
07---04--09--09---07---0--15----13----11---9---07---07----07---------|
---------------------------------------------------------------07----|
---------------------------------------------------------------------|
---------------------------------------------------------------------|

-----------7----------------------------------------------------------|
---5----3/--10-7-7----7------10-7----7--------------------------------|
----------------9--10---10-9------10---10-9-7-----------------2-4-----|
05---04---------------------------------------9--9------0-2-5-----5^2-|
----------------------------------------------------------------------|
----------------------------------------------------------------------|
END SOLO


Here are a couple of licks he does over the A chord throughout the song after
the solo:

LICK 1                                 LICK 2
---9----7----4----2--------------------------------------------------|
-------------------------------------------5-----3-----5----7---8/9--|
09---07---04---02-----0-2---2-0--------------------------------------|
--------------------------------2/------06----04----06---07---08-----|
---------------------------------------------------------------------|
---------------------------------------------------------------------|

LICK 3                           END LICK
---------------------------------------------------------------------|
----5----3----2----3------2-0-------5----3-----5-----7-----8--9------|
---------------------------------------------------------------------|
-05---04---02---04----02---------06---04----06----07----08-----------|
---------------------------------------------------------------------|
---------------------------------------------------------------------|

7.YOU REALLY GOT ME

Intro
  Q=140
 4/4
  Gtr I
  H    Q.   E   E E E E Q  S S E   E E E E Q  S S E
|-------------|------------------|------------------|
|-------------|------------------|------------------|
|-------------|-2-2---2----x-x---|-2-2---2----x-x---|
|-------------|-2-2---2----x-x---|-2-2---2----x-x---|
|-------------|-0-0---0----x-x---|-0-0---0----x-x---|
|-----------3-|-----3----------3-|-----3----------3-|


  E E E E Q  S S E   E E E  E  +Q.   E   E E E E E E E E
|------------------|-------------------|---------x-x-x---|
|------------------|-------(2)---------|---------x-x-x---|
|-2-2---2----x-x---|-2-2----2--(2)-----|-2-2---2-x-x-x---|
|-2-2---2----x-x---|-2-2----2--(2)-----|-2-2---2-x-x-x---|
|-0-0---0----x-x---|-0-0----0--(0)-----|-0-0---0-x-x-x---|
|-----3----------3-|-----3-----------3-|-----3---x-x-x-3-|


  E E E E E E E E   E E E E E E E E   E E E   E +E  a  E  +Q
|---------x-x-x---|---------x-x-x---|---------------------------|
|---------x-x-x---|---------x-x-x---|---------------------------|
|-2-2---2-x-x-x---|-2-2---2-x-x-x---|-2-2-----------------------|
|-2-2---2-x-x-x---|-2-2---2-x-x-x---|-2-2-----------------------|
|-0-0---0-x-x-x---|-0-0---0-x-x-x---|-0-0-----------------------|
|-----3---x-x-x-3-|-----3---x-x-x-3-|-----3b5-3-(3)-3s15-(15)\--|


 Verse 1
  PM----------------------------------------|
  E E E E Q.   E   E E E E Q  S S E   E E E E E a E    +Q
|----------------|------------------|----------------------|
|----------------|------------------|----------------------|
|----------------|------------------|-------------4pb5r(4)-|
|-2-2---2--------|-2-2---2----x-x---|-2-2---2---x----------|
|-0-0---0--------|-0-0---0----x-x---|-0-0---0--------------|
|-----3--------3-|-----3----------3-|-----3----------------|


                                      PM----------------------------|
   E   E   E   E   E   E   E     E    E E E E Q.   E   E E E E Q  E E
|-----------------------------------|----------------|----------------|
|-----------------------------------|----------------|----------------|
|-[4]-[2]---------------------------|----------------|----------------|
|---------[4]-[3]-[2]---------------|---2---2--------|-2-2---2----x---|
|---------------------[4]-[2]b4-[2]-|-0-0---0--------|-0-0---0----x---|
|-----------------------------------|-----3--------3-|-----3--------3-|


  PM----|                                                         PM-|
  E E E E E  Q.          E   E   E   E   E   E  E E   E E E E Q   E  E
|---------------------|-----------------------------|------------------|
|---------------------|-----------------------------|------------------|
|-----------[7]b7.5---|-[5]-[7]---------------------|------------------|
|-2-2---2-------------|---------[7]-[5]-------------|-4-4---4--------2-|
|-0-0---0-------------|-----------------[7]-[5]-3h5-|-2-2p0-2----(0)-0-|
|-----3---------------|-----------------------------|------------------|
                          random harmonics

  PM--------------------------------------------------|
  E E E E Q.   E   E E E E Q   E  E   E E E E +Q    E E
|----------------|------------------|-------------------|
|----------------|------------------|-------------------|
|----------------|------------(0)---|-------------------|
|-4-4-2-4------2-|-4-4-2-4--------2-|-4-4---4-(4)/--7s8-|
|-2-2-0-2------0-|-2-2-0-2--------0-|-2-2-0-2-(2)/--5s6-|
|----------------|------------------|-------------------|


                 PM--------|          PM--------|
  E E E E +E   E E E   E E E E +E   E E E   E E E E +E   E E E
|--------------------|--------------------|--------------------|
|--------------------|--------------------|--------------------|
|-9-9-7-9-(9)\-------|-------9-(9)\-------|-------9-(9)\-----7-|
|-9-9-7-9-(9)\-----7-|-9-9-7-9-(9)\-----7-|-9-9-7-9-(9)\-----7-|
|-7-7-5-7-(7)\---x-5-|-7-7-5-7-(7)\---x-5-|-7-7-5-7-(7)\---x-5-|
|--------------------|--------------------|--------------------|


 Chorus
  E E E E E E     E E    E E E E     +Q   Q    E E E E +Q    S S E
|----------------------|---------------------|---------------------|
|----------------------|---------------------|-----7-9-(9)\--------|
|----------------------|-------9b12==(9)r=9--|-9-9-7-9-(9)\--------|
|-9-9-7-9---------2----|-9-9-7---------------|-9-9-7-9-(9)\--------|
|-7-7-5-7-----------5/-|-7-7-5---------------|-7-7-5-7-(7)\--------|
|---------0-3b3.5------|---------------------|---------------x-x-0-|


                               PM----------------------------|
  W          Q   Q   Q   Q     E E E E Q.   E   E E E E Q.   E
|----------|-----------------|----------------|-----------------|
|----------|-----------------|----------------|-----------------|
|-7--------|-x\--x\----------|----------------|-----------------|
|-7--------|-x\--x\--x-------|----------------|-2-2---2---------|
|-5--------|---------x-------|-0-0---0--------|-0-0---0---------|
|----------|------------15\--|-----3--------3-|-----3--------3--|


  PM----|                                           PM------------|      PM
                             |-3-| |-3----------------------------|
  E E E E E Q      +E    +E  S S S E E E Q.    E    E E E E Q.   E
|----------------------|--------------------------|----------------|
|-----------8b11===(8)r|=(8)----------------------|----------------|
|----------------------|-----7h9p7-6--------------|----------------|
|-2-2---2--------------|-------------7------------|----------------|
|-0-0---0--------------|---------------7-5b7---7\-|-0-0---0--------|
|-----3----------------|--------------------------|-----3--------3-|


  PM----|                              T
                             |-3-| |-3-|
  E E E E Q.   E   E E E E E S S S E E E
|----------------|-----------------------|
|----------------|-----------5h8p5h8p5-8s|
|----------------|-----------------------|
|----------------|-2-2-------------------|
|-0-0---0--------|-0-0---0---------------|
|-----3--------3-|-----3-----------------|


               T            T
   |-3-| |--3--|
   S S S S +S  S S +S  S S  E  E  Q
|--------------------------------------|
|-12p8p5h8-(8)p5-8-(8)p5h8-12s17-------|
|--------------------------------------|
|--------------------------------------|
|--------------------------------------|
|--------------------------------12\---|


                  PM--------|      PM--------|          PM
  E E E E +Q    E E   E E E E Q.   E   E E E E +E   E E E
|-------------------|----------------|--------------------|
|-------------------|----------------|--------------------|
|-------------------|----------------|--------------------|
|-4-4---4-(4)\----2-|-4-4-2-4------2-|-4-4-2-4-(4)\-----2-|
|-2-2-0-2-(2)\----0-|-2-2-0-2------0-|-2-2-0-2-(2)\---0-0-|
|-------------------|----------------|--------------------|


  PM|                               PM--------|         PM|
  E E E E +Q    E E   E E E E +Q    E E   E E E E +Q    E E
|-------------------|-------------------|-------------------|
|-------------------|-------------------|-------------------|
|-4-4-2-4-(4)/----7-|-9-9-7-9-(9)\------|-------9-(9)\------|
|-4-4-2-4-(4)/----7-|-9-9-7-9-(9)\------|-9-9-7-9-(9)\----7-|
|-2-2-0-2-(2)/----5-|-7-7-5-7-(7)\--x-5-|-7-7-5-7-(7)\--x-5-|
|-------------------|-------------------|-------------------|


                     Chorus
                PM--------|         PM--------|
  E E E E +Q    E E   E E E E +Q    E E   E E E E +E   E  Q
|-------------------|-------------------|--------------------|
|-------------------|-------------------|--------------------|
|-9-9-7-9-(9)\------|-9-9-7-9-(9)\------|-9-9-x-9-(9)--------|
|-9-9-7-9-(9)\----7-|-9-9-7-9-(9)\--x-7-|-9-9-x-9-(9)-<7>----|
|-7-7-5-7-(7)\--x-5-|-7-7-5-7-(7)\--x-5-|-7-7-x-7-(7)-----0--|
|-------------------|-------------------|--------------------|

                                          Guitar Solo (with phaser)
  E E E E +Q   Q    W          +E  E  Q   Q  E    S S
|-----------------|----------|------------------------|
|-----------------|----------|------------------------|
|-9-9-7-9-(9)-----|-7--------|-(7)-----------7b9==7-7-|
|-9-9-7-9-(9)-----|-7--------|-(7)-x\-x\--x-----------|
|-7-7-5-7-(7)-----|-5--------|-(5)-x\-x\--x-----------|
|--------------7--|----------|------------------------|


                                                             T       T
                                                             |-----6-----|
  S S S S E   S S E S S   S S E   E.  S S    +E  +S  S E.    S  S S  S S S
|-5-5-5-5-----5-5-5-5-----5-5-5-|-----5--------------------(10)------------|
|-5-5-5-5-----5-5-5-5-----5-5-5-|-------------------------------5h8-10p5h8-|
|---------7b9---------7b9-------|-7b9---7b9==(7)r(7)p5-7b9-----------------|
|-------------------------------|------------------------------------------|
|-------------------------------|------------------------------------------|
|-------------------------------|------------------------------------------|


   T      T      T      T      T      T
   |----6-----|  |----6-----|  |----6-----|
   S S S  S S S  S S S  S S S  S S S  S S S S E.
|--------------------------------------------------|
|-10p5h8-10p5h8-10p4h7-10p4h7-10p3h6-10p3h6-2------|
|---------------------------------------------4b6==|
|--------------------------------------------------|
|--------------------------------------------------|
|--------------------------------------------------|


       T
  +E   E  +E   S +S  Q  E.  S
|--------------------------17-|
|-----------------------------|
|-(4)-12-(12)rp4-(4)p2s12-----|
|-----------------------------|
|-----------------------------|
|-----------------------------|


                                                             ~~~~~
                                                                     |--3--|
   Q      E  Q      E  Q        S  S  S  S  S  S     +S   S  Q       E  E  E
|--------17--------17--------|-17--------------------------------------------|
|-20b24-----20b24-----20b24--|----20p17----17-----------------------------17-|
|----------------------------|----------19----19b21r(19)p17-19b21------14----|
|----------------------------|-------------------------------------/16-------|
|----------------------------|-----------------------------------------------|
|----------------------------|-----------------------------------------------|


   +E   E  E      E  E      E       E   S  S
|--------------------------------------------|
|-(17)-17-17pb20-17-17pb20-17b22==(22)p17p14-|
|--------------------------------------------|
|--------------------------------------------|
|--------------------------------------------|
|--------------------------------------------|


                          ~~~~~~~~
   S  E      +S   S   E   S  +Q   Q
|------------------------------------|
|------------------------------------|
|-17-17pb19r(17)-14-(17)-14-(14)s=5--|
|-------------------------x----------|
|------------------------------------|
|------------------------------------|

                                    * turn neck pickup volume off turn vol
                                     on/off by rapidly switching pickup switch
                                     from neck to bridge
    Q       +Q     H        H      +S  S   S  S   S  S   S  S
|------------------------|------------------------------------|
|------------------------|------------------------------------|
|-/10b12===(10)--(10)----|-12-----(12)---(12)---(12)---(12)---|
|-----------------(9)----|-(9)-----(9)----(9)----(9)----(9)---|
|------------------------|------------------------------------|
|------------------------|------------------------------------|


                                |-------6--------|
    S  S   S  S   S  S   S  S   S  S   S  S   S  S   T  T   T  T   T  T   T  T
|------------------------------------------------------------------------------|
|------------------------------------------------------------------------------|
|-(12)---(12)---(12)---(12)---(12)---(12)---(12)---(12)---(12)---(12)---(12)---|
|--(9)----(9)----(9)----(9)----(9)----(9)----(9)----(9)----(9)----(9)----(9)---|
|------------------------------------------------------------------------------|
|------------------------------------------------------------------------------|


    |-------6--------|
    S  S   S  S   S  S Q   E  E +Q
|--------------------------------------|
|--------------------------------------|
|-(12)---(12)---(12)-------------------|
|--(9)----(9)----(9)---x\--x\----------|
|----------------------x\--x\-9-(9)\---|
|--------------------------------------|

  phaser off
  Wx7          Q.   E E E E E
|------------|----------------|
|------------|----------------|
|------------|------5---------|
|------------|----------5---7-|
|------------|----------------|
|------------|----------------|


  +E   E H.        W          H.      E E   Q  Q   Q  Q
|----------------|----------|-------------|----------------|
|----------------|----------|-------------|----------------|
|----------------|----------|-------------|----------------|
|-(7)\-----------|----------|-------------|----------------|
|----------------|----------|-----------xs|=xs=x-----------|
|----------------|----------|-------------|-------17s=5\---|


  E E E E Q  E E   E E E E +Q   E E   E E E E +Q    E E
|----------------|------------------|-------------------|
|----------------|------------------|-------------------|
|----------------|------------------|-------------------|
|-4-4-2-4--------|-4-4-2-4-(4)----2-|-4-4-2-4-(4)\----2-|
|-2-2-0-2----x-0-|-2-2-0-2-(2)----0-|-2-2-0-2-(2)\----0-|
|----------------|------------------|-----------------0-|


  E E E E +Q    Q    E E E E +Q    E E   E E E E +Q    E E
|------------------|-------------------|-------------------|
|------------------|-------------------|-------------------|
|---------------7--|-9-9-7-9-(9)\----7-|-------9-(9)\------|
|-4-4-2-4-(4)/--7--|-9-9-7-9-(9)\----7-|-9-9-7-9-(9)\----7-|
|-2-2-0-2-(2)/--5--|-7-7-5-7-(7)\----5-|-7-7-5-7-(7)\--x-5-|
|------------------|-------------------|-------------------|


                                                 ~~~~~~~~
  E E E E +Q    E E   E E E E E E     E E   Q  E E   +Q   +Q
|-------------------|---------------------|---------------------|
|-------------------|---------------------|---------------------|
|-9-9-7-9-(9)\----7-|-9-9-7-9-------------|-9-------------------|
|-9-9-7-9-(9)\--x-7-|-9-9-7-9-----------x-|-9--7----------------|
|-7-7-5-7-(7)\--x-5-|-7-7-5-7---------2-x-|-7--5-7b9-(7)--(7)\--|
|-------------------|---------0-3b3.5-----|---------------------|


  E E E E     +Q.   E   E E E E E E. E.    Q   E   E  Q      S  S  S  S
|---------------------|-----------------|---------12--------12----------|
|---------------------|-----------------|------------15b17-----12h15p12-|
|-9-9-7-9b12==(9)-----|-9---9---9----x--|-12----------------------------|
|-9-9-7---------------|-9---9---9----x--|-12--12/-----------------------|
|-7-7-5---------------|-7---7---7----x--|-------------------------------|
|-------------------0-|-----------------|-------------------------------|


   |------6-------|  |------6-------|     |------6-------|  |------6-------|
   S  S  S  S  S  S  S  S  S  S  S  S  a  S  S  S  S  S  S  S  S  S  S  S  S
|----------12----------------------------------------------------------------|
|----12h15----12h15p12-------------------------------------------------------|
|-14-------------------15-14p12----14----11h12p11----11----------------------|
|-------------------------------14----14----------14----12-14-11h12p11----11-|
|----------------------------------------------------------------------14----|
|----------------------------------------------------------------------------|


   E  E E E H      H.        Q
|----------------|--------------*|
|----------------|--------------*|
|----------------|--------------*|
|----------------|--------------*|
|-12s11s9s7s5s===|=2b5==========*|
|----------------|-----------0--*|

8.DREAMS

e-----------------------------0------------------0-1-1--1/3--0---0-----|
B-0-1-1-3-3--1-1----0-1-1-3-3---1-0-0h1p0----0-1---------------3---3-1-|
G--0--------------0------------------------0---------------------------|
D----------------------------------------------------------------------|
A----------------------------------------------------------------------|
E----------------------------------------------------------------------|

e-0h1---0------------|
B-3-----1---3-3------|
G-----------5-5------|
D--------------------|
A--------------------|
e--------------------|

e-----------------------------0------------------0-1-1--1/3--0---0-----|
B-0-1-1-3-3--1-1----0-1-1-3-3---1-0-0h1p0----0-1---------------3---3-1-|
G--0--------------0------------------------0---------------------------|
D----------------------------------------------------------------------|
A----------------------------------------------------------------------|
E----------------------------------------------------------------------|

e-0h1-1--0-0-----------|
B-3---3--1-1--3-3------|
G-------------5-5------|
D----------------------|
A----------------------|
e----------------------|
                    (quicker then the 1st time)
e-----0-0--1--0------0-0-1-0--------0-0--1----------0-0---------------|
B-3-3-1-1--3--1--3-3-1-1-3-1----3-3-1-1--3--3-1--1--1-1-3-------------|
G-5-5------------5-5------------5-5---------5-2--2------5-------------|
D---------------------------------------------------------------------|
A---------------------------------------------------------------------|
E---------------------------------------------------------------------|

e-----0-0--1--0------0-0-1-0--------0-0--1------0---1--0-0------------|
B-3-3-1-1--3--1--3-3-1-1-3-1----3-3-1-1--3--3-1-1-3-3--1-1-3----------|
G-5-5------------5-5------------5-5---------5-2---5--------5----------|
D---------------------------------------------------------------------|
A---------------------------------------------------------------------|
E---------------------------------------------------------------------|

This is the Outro
e-0-0-1-----1-1------------------|
B-------1-------3-----1----------|
G-----------------3-----2---0----|
D-------------------3-----3------|
A--------------------------------|
E--------------------------------|

9.HOT FOR TEACHER

NOTE: the hole intro solo is played using tapping except for the last little part


e|----------------|----------------|----------------|----------------|----------------|
B|----------------|----------------|----------------|----------------|----------------|
G|----------------|----------------|----------------|----------------|----------------|
D|----------------|----------------|----------------|----------------|----------------|
A|-X/////////////-|-0-3-7-12-7-3-0-|-0-3-7-12-7-3-0-|-0-3-7-12-7-3-0-|-0-3-7-12-7-3-0-|
E|-X/////////////-|----------------|----------------|----------------|----------------|
PICK SLIDE^
e|----------------|----------------|----------------|----------------|
B|----------------|----------------|----------------|----------------|
G|----------------|----------------|----------------|----------------|
D|----------------|----------------|----------------|----------------|
A|-0-5-9-12-9-5-0-|-0-5-9-12-9-5-0-|-0-5-9-12-9-5-0-|-0-5-9-12-9-5-0-|
E|----------------|----------------|----------------|----------------|

e|----------------|----------------|----------------|----------------|
B|----------------|----------------|----------------|----------------|
G|----------------|----------------|----------------|----------------|
D|-0-3-7-12-7-3-0-|-0-3-7-12-7-3-0-|-0-3-7-12-7-3-0-|-0-3-7-12-7-3-0-|
A|----------------|----------------|----------------|----------------|
E|----------------|----------------|----------------|----------------|

e|----------------|----------------|----------------|----------------|
B|----------------|----------------|----------------|----------------|
G|----------------|----------------|----------------|----------------|
D|-0-5-9-12-9-5-0-|-0-5-9-12-9-5-0-|-0-5-9-12-9-5-0-|-0-5-9-12LETRING|
A|----------------|----------------|----------------|----------------|
E|----------------|----------------|----------------|----------------|

e|----------------|----------------|----------------|----------------|
B|----------------|----------------|----------------|----------------|
G|-0-3-7-12-7-3-0-|-0-3-7-12-7-3-0-|-0-5-9-12-9-5-0-|-0-5-9-12-9-5-0-|
D|----------------|----------------|----------------|----------------|
A|----------------|----------------|----------------|----------------|
E|----------------|----------------|----------------|----------------|

e|----------------|----------------|----------------|----------------|
B|----------------|----------------|----------------|----------------|
G|-0-3-7-12-7-3-0-|-0-3-7-12-7-3-0-|-0-5-9-12-9-5-0-|-0-5-9-12LETRING|
D|----------------|----------------|----------------|----------------|
A|----------------|----------------|----------------|----------------|
E|----------------|----------------|----------------|----------------|

THIS PART IS NOT TAPPED
e|----------------|----------------|----------------|----------------|----------------|----------------|
B|----------------|----------------|----------------|----------------|----------------|----------------|
G|-7-9-12-9-7-9-7-|-5-7-5-3-5-3-0-2|bridge part you can probably figure it out yourself but i will post|
D|----------------|---------------2|it eventually---|----------------|----------------|----------------|
A|----------------|---------------0|----------------|----------------|----------------|----------------|
E|----------------|----------------|----------------|----------------|----------------|----------------|

MAIN RIFF
e|----------------|----------------|------------------|
B|----------------|----------------|------------------|
G|--2-------------|--2-------------|-2---------587----|
D|--2-------------|--2-------------|-2---------587----|REPEAT AS NECCESARY
A|--0---3p0--3p0--|--0---3p0--3p0--|-0--5h7h8---------|
E|----------------|----------------|------------------|

10.POUNDCAKE

|-0-0-0-0-0---0-0-|-0---0-0-0---0-0-|-0---0-0-0---------------|-----------------|
|-0-0-0-0-0---0-0-|-0---0-0-0---0-0-|-0---0-0-0---------------|-----------------|
|-9-9-9-9-9---9-9-|-9\7-7-7-7---7-7-|-7p6-6-6-6---------------|-----------------|
|-9-9-9-9-9---9-9-|-9\7-7-7-7---7-7-|-7---7-7-7---------------|-----------------|
|-7-7-7-7-7---7-7-|-7\5-5-5-5---5-5-|-5p4-4-4-4-----0-0-0-0-0-|-----------------|
|-----------------|-----------------|-------------------------|-----------------|


Harmonics..............]
-5-----------0----5---0-|-0-0-0-0-0---0-0-|-0---0-0-0---0-0-|-0---0-0-0---0-|---|
-5-5-5-7-7-7-5-5----5-0-|-0-0-0-0-0---0-0-|-0---0-0-0---0-0-|-0---0-0-0---0-|---|
------------------------|-9-9-9-9-9---9-9-|-9\7-7-7-7---7-7-|-7p6-6-6-6---6-|---|
------------------------|-9-9-9-9-9---9-9-|-9\7-7-7-7---7-7-|-7---7-7-7---7-|---|
------------------------|-7-7-7-7-7---7-7-|-7\5-5-5-5---5-5-|-5p4-4-4-4---4-|---|
------------------------|-----------------|-----------------|---------------|---|


    Harmonics.....]
--0--5-------5-5-5-x-x-|-0-0-0-0-0-----0--0--|-0--0--0--0------0--0--|----------|
--0----5-5-5-------x-x-|-0-0-0-0-0-----15-15-|-15\13-13-13-----13-13-|----------|
6------------------x-x-|-9-9-9-9-9-----14-14-|-14\12-12-12-----12-12-|----------|
-----------------------|-9-9-9-9-9-----12-12-|-12\10-10-10-----10-10-|----------|
4----------------------|-7-7-7-7-7-----12-12-|-12\10-10-10-----10-10-|----------|
-----------------------|---------------------|-----------------------|----------|


               bend   bend
0--0-0-0-|-----------------------||
13\0-0-0-|----------2------2-----||
12\6-6-6-|----------2------2-----||
10\7-7-7-|----------2------2-----||
10\------|----------0------0-----||
---------|-5\3--3------3-----5\0-||
                          She's

P.M.....          Harm.......]  PM.....          Harm.......]
--------------------|---------|--------------------|---------|------------------|
--------------------|---------|--------------------|---------|------------------|
--------------------|---------|--------------------|---------|------------------|
---------9----------|---5-----|---------9----------|-5-------|------------------|
---------7----------|-5-------|---------7----------|---5-4---|------------------|
-0-0-0-0---0-0----4-|-----4-3-|-0-0-0-0---0-0----4-|-------3-|------------------|
Gotta have soul...              Or it won't feel...

P.M.....          Harmonics..]
--------------------|---------|
--------------------|---------|
--------------------|---------|
---------9----------|---5-----|
---------7----------|-5---5---|
-0-0-0-0---0-0----4-|-------4-|
Well just plain...

                Harmonics.....]     (play main riff until end of prechorus)
-------------------|-----12----||-0-0-0-0-0---0-0-|-0---0-0-0-----0-0-|---------|
-------------------|---7----12-||-0-0-0-0-0---0-0-|-0---0-0-0-----0-0-|---------|
-------------------|-5---------||-9-9-9-9-9---9-9-|-9\7-7-7-7-----7-7-|---------|
--------9--------5-|-----------||-9-9-9-9-9---9-9-|-9\7-7-7-7-----7-7-|---------|
--------7----------|-----------||-7-7-7-7-7---7-7-|-7\5-5-5-5-----5-5-|---------|
0-0-0-0---0-0------|-----------||-----------------|-------------------|---------|
Wrapped up...                     And home grown...

                   Depress bar slowly.....
0---0-0-0--------||---------------------||
0---0-0-0--------||---------------------||
7p6-6-6-6--/14p0-||---------------------||
7---7-7-7--------||---------------------||
5p4-4-4-4--------||---h4p0h4p0h4p0h4/10-||
-----------------||---------------------||
                                Gettin'

P.M.....          Harm.......]   P.M....          Harm.......]
--------------------|---------|---------------------|---------|-----------------|
--------------------|---------|---------------------|---------|-----------------|
--------------------|---------|---------------------|---------|-----------------|
---------9----------|-5-------|----------9----------|---5-----|-----------------|
---------7----------|---5-----|----------7----------|-5---4---|-----------------|
-0-0-0-0---0-0----4-|-----4-3-|--0-0-0-0---0-0----4-|-------3-|-----------------|
hard to find...        Guess it ain't hip enough now

P.M.....          Harmonics..]
--------------------|---------|-------------------------------------------------|
--------------------|---------|-------------------------------------------------|
--------------------|-5-------|-------------------------------------------------|
---------7----------|---5-4---|-------------------------------------------------|
-0-0-0-0---0-0----4-|-------3-|-------------------------------------------------|
--------------------|---------|-------------------------------------------------|
You take an average...

                Harmonics.......]
-------------------|-------------|----------------------------------------------|
-------------------|-------------|----------------------------------------------|
-------------------|---5---------|----------------------------------------------|
--------7----------|-5---5-------|----------------------------------------------|
0-0-0-0---0-0----4-|-------4-3-3-|----------------------------------------------|
-------------------|-------------|----------------------------------------------|
He can't identify...

                Harmonics.....]   P.M....         Harm........
---------------------|---------|--------------------|---------||----------------|
---------------------|---------|--------------------|---------||----------------|
---------------------|---------|--------------------|---------||----------------|
--------9------------|-5-------|----------9-9-------|-5-------||----------------|
--------7----------4-|---5-----|----------7-7-------|---5-----||----------------|
0-0-0-0---0-0----4---|-----4-3-|--0-0-0-0-----0---4-|-----4-3-||----------------|
And there's a...                Of the fine...

                                      PM......
--------------------------|--------------------|---------------------------|----|
4-4-4-4-4-4-4-4-4-4-4-----|--------------------|-4-4-4-4-4-4-4-4-4-4-4-----|----|
4-4-4-4-4-4-4-4-4-4-4-----|-5---7--------------|-4-4-4-4-4-4-4-4-4-4-4-----|----|
4-4-4-4-4-4-4-4-4-4-4-----|-5---7--------------|-4-4-4-4-4-4-4-4-4-4-4-----|----|
2-2-2-2-2-2-2-2-2-2-2-0-2-|-3---5-7------------|-2-2-2-2-2-2-2-2-2-2-2-0-2-|----|
--------------------------|---3---5----0-2-3-5-|---------------------------|----|
Let me get on, let me get on...                  Bake it up nice...

            PM......
--------------------|---------------------------|-------------------------------|
----8-8-7-7---------|-4-4-4-4-4-4-4-4-4-4-4-----|-------------------------------|
5---7-7-7-7---------|-4-4-4-4-4-4-4-4-4-4-4-----|-------------------------------|
5---7-7-7-7---------|-4-4-4-4-4-4-4-4-4-4-4-----|-------------------------------|
3-5-5-5-5-5---------|-2-2-2-2-2-2-2-2-2-2-2-0-2-|-------------------------------|
--3---------0-2-3-5-|---------------------------|-------------------------------|
                     Let me get on, let me get on...

          PM......
-------------------|-------------|-3-3-----3-3-----3-3-----3-3-||---------------|
-------------------|-4-----------|-5-5-----5-5-----5-5-----5-5-||---------------|
5---7--------------|-4-----------|-5-5-----5-5-----5-5-----5-5-||---------------|
5---7--------------|-4-----------|-5-5-----5-5-----5-5-----5-5-||---------------|
3-5-5-7------------|-2-------2/3-|-3-3-----3-3-----3-3-----3-3-||---------------|
--3---5----0-2-3-5-|-------------|-----------------------------||---------------|
               My baby's poundcake...


Then you do the main riff again for the pre-chorus.  And for the "Uh-a...
A-huh-HUH!" part, do this:

|------------------------|--------------|------------------------|--------------|
|-14-16-----12-12---14-9-|-7/9-7/9--/12-|-14-16-----12-12---14\9-|--------------|
|-14-16-----12-12---14-9-|-7/9-7/9--/12-|-14-16-----12-12---14\9-|--------------|
|-14-16---x-12-12---14\9-|-7/9-7/9--/12-|-14-16---x-12-12---14\9-|--------------|
|------------------------|--------------|------------------------|--------------|
|------------------------|--------------|------------------------|--------------|

--------------------|------------------------|--------------|-----------------|
9-9p7---7-7p5---5-5-|-14-16-----12-12---14\9-|-7/9-7/9--/12-|-----------------|
9-9p7---7-7p5---5-5-|-14-16-----12-12---14\9-|-7/9-7/9--/12-|-----------------|
9-9p7---7-7p5---5-5-|-14-16---x-12-12---14\9-|-7/9-7/9--/12-|-----------------|
--------------------|------------------------|--------------|-----------------|
--------------------|------------------------|--------------|-----------------|

--------------------------|-------------------------||
14-16-----12-12---14---16-|-17-17-17-17-17-17-17-17-||
14-16-----12-12---14---16-|-16-16-16-16-16-16-16-16-||  (to the solo;
14-16---x-12-12---14---16-|-16-16-16-16-16-16-16-16-||   DON'T EVEN ASK!)
--------------------------|-------------------------||
--------------------------|-------------------------||

Then, after the solo, there's that part that goes "I've been out there,
tried a bit of everything.  It's all sex without love, I've found the
real thing is Poundcake!" then play this: (and then go to the main riff)

|-5-----------|-----------0-|
|-5-4-----4---|-5-4h5p4---2/|
|-4---4-----4-|---------4-2/|
|-4-----4-----|-----------2/|
|-2-----------|-----------0-|
|-------------|-------------|

11.AND THE CRADLE WILL ROCK

Intro

 4/4
  Gtr I
                                         PM  PM  PM

|----------------|----------------||-----------------|
|----------------|----------------||-----------------|
|-x-x-x-x-x-x-x--|-x-x-x-x-x------||-2-2---5---5---0-|
|-x-x-x-x-x-x-x--|-x-x-x-x-x------||-2-2---5---5---0-|
|-x-x-x-x-x-x-x--|-x-x-x-x-x------||-0-0-0-0-0-0-0-0-|
|-x-x-x-x-x-x-x--|-x-x-x-x-x--0-3-||-----------------|
                                   |-Rhy Fig 1

                        PM  PM  PM

|-----------------|-----------------|------------------|------------------|
|-----------------|---------------3-|------------------|------------------|
|-----------------|-2-2---5---5---2-|------------------|--2-2---5---5---0-|
|-----------------|-2-2---5---5---0-|------------------|--2-2---5---5---0-|
|-0-0-0-0-0-0-----|-0-0-0-0-0-0-0---|------------------|--0-0-0-0-0-0-0-0-|
|-------------0-3-|---------------3-|--3-3-3-3-3-3-0-3-|------------------|
|
| Gtr II
|
|-----------------|-----------------|-17---------------|-17---------------|
|-----------------|-----------------|------------------|------------------|
|-----------------|-----------------|-14---------------|-14---------------|
|-----------------|-----------------|------------------|------------------|
|-----------------|-----------------|------------------|------------------|
|-----------------|-----------------|------------------|------------------|


                                      PM  PM  PM

|------------------------------|------------------|---------------------||
|------------------------------|----------------3-|-------3--------3----||
|----------------------5-------|--2-2---5---5---2-|-----0-2--------2----||
|----------------------5-------|--2-2---5---5---0-|-------0--------0----||
|--0--0-0--0--------0----------|--0-0-0-0-0-0-0---|---------------------||
|------------------------0--3--|----------------3-|--3--3-3-3-3-3-----3-||
|                                                         end Rhy Fig 1-|
|
|
|          |--3--|
|
|-17------15-12-------15---15\-|-17---------------|-17------------17\---||
|---------------15-------------|------------------|---------------------||
|-14---------------12-12---12\-|-14---------------|-14------------14\---||
|------------------------------|------------------|---------------------||
|------------------------------|------------------|---------------------||
|------------------------------|------------------|---------------------||


 Verse 1

|-----------------|---------------|-----1-1---------|-----------------|
|-----6-----5-----|-6----6---5----|-----1-1---------|-----3-3-3-1---3-|
|-----5-----5-----|-5----5---5--5-|-----3-3-----3-3-|-----3-3-3-3-----|
|-----5-----5-----|-5----5--------|-------------3-3-|-----3-3-3-3-3---|
|-3-3-3-3-3-3-3-3-|-3--3-3-3------|-1-1-1-1-1-1-1-1-|-1-1-1-1-1-1-----|
|-----------------|---------------|-----------------|-----------------|


|--------------------|-----------------------|
|------6-----5-------|--6------5h=6----5-----|
|------5-----5-------|--5------5-------5-----|
|------5-----5-------|--5------5-------5-----|
|-3--3---3-3-----3-3-|--3--3-3-3-------3-3-3-|
|--------------------|-----------------------|
|
| Gtr II
| ~~               ~~~~~~~~~~~~~~~~~~
|
|--------------------|-----------------------|
|--------------------|-----------------------|
|--------------------|-----------------------|
|--------------5s7-5-|-(5)-------(5)-5s3s==2-|
|-3------------------|-----------------------|
|--------------------|-----------------------|

|-----------------|---------------------||
|-3----3-(3)---3--|---------------------||
|-3----2-(2)---3--|--x--x-x--x-x--x-----||
|-3--3-3-(3)-3-3--|--x--x-x--x-x--x-----||
|-1--1-1-(1)-1-1--|--x--x-x--x-x--x-----||
|-----------------|--x--x-x--x-x--x-0-3-||
|
|      ~~~~~~  ~~~~~~~~~
|
|-----------------|---------------------||
|-----------------|-------x\------------||
|----3-2-(2)---3--|-(3)---x\---x\-x-----||
|-3----------2----|-------x\---x\-x-x---||
|-----------------|-----------------x---||
|-----------------|---------------------||


 Chorus
w/Rhy Fig 1


|-17---------------|-17------------17---|-17---------------|-17---------------|
|------------------|--------------------|------------------|----------------5-|
|-14---------------|-14------------14s7-|-14---------------|-14-------5---7-5-|
|------------------|--------------------|------------------|----------5---7-5-|
|------------------|--------------------|------------------|------------------|
|------------------|--------------------|------------------|------------------|

|----------------------|-----------------|----------------------|
|-(5)-------(5)\-------|-----------------|----------------------|
|-(5)-------(5)\-------|---------5---7-5-|-(5)--------(5)-------|
|-(5)-------(5)\-------|---------5---7-5-|-(5)--------(5)-------|
|----------------------|-----------------|-----x\---------------|
|----------------------|-----------------|-----x\---------------|


                    Verse 2
                  $

|-----------------||-----------------|-----------------|
|-----3-------3---||-----1-----1---1-|---1-1-----------|
|---0-2-------2---||-----2-----0---0-|---2-2-----3---2-|
|-----0-------0---||-----3-----3---3-|---3-3-----------|
|-----------------||-----------------|-----------------|
|-3-3-3-3-3-3---3-||-1-1-1-1-1-1-1-1-|-1-1-1-1-1---1---|

|-----------------------------------|
|-----------------------------------|
|-3----0--------------2---------2---|
|-1-1--1-----1---1----1-----1---1---|
|-----------------------------------|
|-----------------------------------|
|
| Gtr II - play 1st time only
|
|-----------------------------------|
|------8--------(8)--10-------(10)--|
|-----10b12====(10)r-12b14====(12)r-|
|-----------------------------------|
|-----------------------------------|
|-----------------------------------|

|---------------------------------|--------------------|
|---------------------------1-----|-----10------8----8-|
|-------3-----3-----------------3-|-----10-----10---10-|
|---1---1-----1-----1---1-----1---|-----10-----10---10-|
|---------------------------------|-8-8--8-8-8--8-8--8-|
|---------------------------------|--------------------|
|
|   ~~~~                ~~~~~
|
|---------------------------------|--------------------|
|-(10)-11----11-------(11)--------|--------------------|
|-(12)-13b15-13b15====(13)r-------|--------------------|
|---------------------------------|--------------------|
|---------------------------------|--------------------|
|---------------------------------|--------------------|

|---------------------|---------------------|-----------------||
|---10-10-----11---10-|-8--10-10-(10)-8-8---|-----------------||
|---10-10-----10---10-|-8------8--(8)---8-x-|-x-x-x-x-x-x-x-x-||
|---10-10-----10---10-|-8------8--(8)---8-x-|-x-x-x-x-x-x-x-x-||
|-8--8--8-8-8----8----|-6------6--(6)---6-x-|-x-x-x-x-x-x-x-x-||
|---------------------|-------------------x-|-x-x-x-x-x-x-x-x-||


 Chorus
w/Rhy Fig 1
  Gtr II

|-17---------------|-17------------17\---|
|------------------|---------------------|
|-14---------------|-14------------14\---|
|------------------|---------------------|
|------------------|---------------------|
|------------------|---------------------|

|-/17------------17\---|-17---------------|
|----------------------|------------------|
|-/14------------14\---|-14-------5---7-5-|
|----------------------|----------5---7-5-|
|----------------------|------------------|
|----------------------|------------------|


                                                              To Coda

|------------------------|----------------------|----------------------|
|------------------------|---x/-----------------|----------------------|
|-(5)-------(5)\---(0)---|---x/---------5---7-5-|-(5)-------(5)\-------|
|-(5)-------(5)\---------|---x/---------5---7-5-|-(5)-------(5)\-------|
|------------------------|------(5)-(5)---------|----------------------|
|------------------------|------(5)-(5)---------|----------------------|


  Gtr II


|---------------------||
|---------------------||
|------------------17p||
|---------------------||
|---------------------||
|---------------------||


 Guitar Solo

  |-----------9-----------|  |------------9------------|  |--3--|

|-------------------------------------------------------------------------------|
|-------------------------------------------------------------------------------|
|-9h12-17p9h12---17p9h12-17p10h13-17p10h13---17p10h11-17p11-17p11-17p11b12======|
|-------------------------------------------------------------------------------|
|-------------------------------------------------------------------------------|
|-------------------------------------------------------------------------------|
|
|
|-------------------------------------------------------------------------------|
|-5------------5-------------5-------------5--------------5-----------5---------|
|-5------------5-------------5-------------5--------------5-----------5-------5-|
|-5------------5-------------5-------------5--------------5-----------5-------5-|
|-3------------3-------------3-------------3--------------3-----------3-----3---|
|-----------------------------------------------------------------------------6-|


         ~~~~~~                       ~~~

|-----------------------------------------------|
|-----------------------------------------------|
|-(11)r-14b15==(14)rp11pb12r==(11)p9-(9)---(9)\-|
|-----------------------------------------------|
|-----------------------------------------------|
|-----------------------------------------------|
|

|
|-----------------------------------------------|
|-------------------------------------5---------|
|----------------------------------------7--5---|
|-----------------------------------------------|
|-----------------------------------------------|
|---6----6-------6----------6------6------------|


          |--3---|  |--3---|

|------------------------------------|
|------------------------------------|
|---5b8==(5)-5---5--5--5---5-5-5-5-5-|
|------------------------------------|
|------------------------------------|
|------------------------------------|
|
|
|---------0--------------0-----------|
|-6------------6---(6)-------6-------|
|-5------------5---(5)-------5-------|
|------------------------------------|
|------------------------------------|
|-5------------5---(5)-------4-------|


                     ~~~~~
                                 |-3-|

|--------------------------------------|
|--------------------------------------|
|-(5)r(5)-3h5s3b5===(3)rs==10----------|
|--------------------------------------|
|-----------------------------x\-3h5h7-|
|-----------------------------x\-------|
|
|
|--------------------------------------|
|-(6)---------------(6)--4s===3--1-----|
|-(5)---------------(5)----------------|
|--------------------------------------|
|--------------------------------------|
|-(4)---------------(4)----------------|


          |-3-| |3|  |-3--|       |--3---|            |---3---|

|-------------------------------------8-11b13==(11)-(11)r-11-10-|
|-----------------8h11p8-11b13==(11)r---------------------------|
|-------5h9p5-5S9-----------------------------------------------|
|-5h7h9---------------------------------------------------------|
|---------------------------------------------------------------|
|---------------------------------------------------------------|
|
|
|---------------------------------------------------------------|
|-1-------------0----1-----------(1)-------------0----1---------|
|-0------------------0-----------(0)------------------0---------|
|-----------------------------------------------------3---------|
|---------------------------------------------------------------|
|-3------------------3-----------(3)------------------1---------|


                 ~~~~~~~~~~~                                  ~~~~

|--9--8---------------------------|--------------------------20--|
|-------11b13==(11)--(11)rs====20-|--------20--------------------|
|---------------------------------|-19b21-----19pb21r(19)-17-----|
|---------------------------------|------------------------------|
|---------------------------------|------------------------------|
|---------------------------------|------------------------------|
|
|
|---------------------------------|------------------------------|
|-(1)-----------------(1)---------|--1------0--1------(1)--0--1--|
|-(0)-----------------(0)--3p2p=0-|--0---------0------(0)-----0--|
|-(3)-----------------(3)---------|--2---------2------(2)-----1--|
|---------------------------------|------------------------------|
|-(1)-----------------(1)---------|------------------------------|


 ~~~~~~

|-(20)--------|---------------------||
|-------------|---------------5-----||
|-------------|---------------7b9===||
|-------------|---------------------||
|-------------|---------------------||
|-------------|---------------------||
|
|
|-------------|---------------------||
|--(1)--------|---------------------||
|--(0)--------|-x-x-x-x-x-x---------||
|--(1)--------|-x-x-x-x-x-x---------||
|-------------|-x-x-x-x-x-x---------||
|-------------|-x-x-x-x-x-x-3-0-----||

w/Rhy Fig 1

|-5-5-----5-5-5---------|---------------------------|
|-5-5-5---5-5-5-3-3-----|-(3)--3-3------3---x/------|
|-----7b9-------5-5pb7==|=(5)r-5-5pb7---5b7-x/---/9-|
|-----------------------|-------------------x/------|
|-----------------------|---------------------------|
|-----------------------|---------------------------|

|-5-5-5---5-8-8\---/3-|-5-3-3-(3)-(3)-(3)/--------|
|-5-5-5---5-8-8\---/3-|-3-3-3-(3)-(3)-(3)/---8b10-|
|-----7b9-------------|---------------------------|
|---------------------|---------------------------|
|---------------------|---------------------------|
|---------------------|---------------------------|


|-8---------8------8--------------------------|
|---8pb10r8---8b10---8pb10r(8)p5-h8-10p8b10---|
|---------------------------------------------|
|---------------------------------------------|
|---------------------------------------------|
|---------------------------------------------|


                                   ~~~~
                   |-3--| |-3--|

|---------------------------------------------|
|-10p5h8-10p8b10==(8)r-10p5h8-10p8b10---------|
|---------------------------------------x/-19-|
|---------------------------------------x/----|
|---------------------------------------------|
|---------------------------------------------|

|--------17-------17-----17-------17-17------(17)-----(17)--|
|-20-----20pb20.5-20pb21-20pb21.5-20-20pb21==(20)b22==(20)r-|
|-19pb20-19pb19.5-19pb20-19pb20.5-19------------------------|
|-----------------------------------------------------------|
|-----------------------------------------------------------|
|-----------------------------------------------------------|


                                  D.S. al Coda

|-17-----------17----------(17)\--||
|-20pb22-------20pb22======(20)r\-||
|---------------------------------||
|---------------------------------||
|---------------------------------||
|---------------------------------||


                      Outro
  &
  Gtr II

|-------------------||---------------------|
|-------------------||---------------------|
|-------------------||-----2-------5---5---|
|-------------------||-----2-------5---5-5-|
|-------------------||--0----------------5-|
|---------------0-3-||---------------------|
|                    |-Rhy Fig 2A
|
| Gtr I
|
|-------------------||---------------8-----|
|-(3)---3---------8-||-10-10-10-13---8---8-|
|-(2)-0-2-------9---||--9--9--9-12-------7-|
|-(0)---0-----------||---------------------|
|-------------------||--0--0--0--0-0-0-0-0-|
|-(3)-3-3-3-3-3-----||---------------------|
                     |-Rhy Fig 2

|----------------------|-----------------------|---------------------------|
|----------------------|-----------------------|---------------------------|
|----------------------|-----2-------5----5--7-|--(7)----------(7)\--------|
|-(5)-------(5)\-------|-----2-------5----5--7-|--(7)----------(7)\--------|
|-(5)-------(5)\-------|--0--------------------|---------------------------|
|------------------0-3-|-----------------------|-----------------------0-3-|
|                                                           end Rhy Fig 2A-|
|
|
|----------------8-----|--------------------10-|-(10)----10---------10-----|
|----------------8---8-|-10-10-10-13---13---10-|-(10)----10---------10---8-|
|------------------9---|--9--9--9-12---12------|------12---------------9---|
|----------------------|-----------------------|---------------------------|
|--0--0-0-0--0---------|--0--0--0--0-0--0-0-10-|-(10)----10-10-10---10-----|
|----------------------|-----------------------|---------------------------|
                                                             end Rhy Fig 2-|

w/Rhy Fig 2 + 2A to end
  Gtr III

|-/17------------------|-/17-------------------|
|----------------------|-----------------------|
|-/14------------------|-/14-------------------|
|----------------------|-----------------------|
|----------------------|-----------------------|
|----------------------|-----------------------|


|-----------------17-----(17)--17-----17------|-(17)-----17--------17------------|
|-20-20--------20-20b21==(20)r-20pb21-20pb22==|=(20)r----20pb22----20pb22--------|
|-19----19pb21--------------------------------|----------------------------------|
|---------------------------------------------|----------------------------------|
|---------------------------------------------|----------------------------------|
|---------------------------------------------|----------------------------------|

||--17-----17---17-----17---17-----17---17-----17---|-17-----17---17-----17---17-----17---17-----17-----|
||o-20b22=(20)r-20b22=(20)r-20b22=(20)r-20b22=(20)r-|-20b22=(20)r-20b22=(20)r-20b22=(20)r-20b22-(20)b22-|
||--------------------------------------------------|---------------------------------------------------|
||--------------------------------------------------|---------------------------------------------------|
||o-------------------------------------------------|---------------------------------------------------|
||--------------------------------------------------|---------------------------------------------------|

|-17-----17---17-----17---17-----17---17-----17---|-17-----17---17-----17---17-----17---17-----17----||
|-20b22=(20)r-20b22=(20)r-20b22=(20)r-20b22=(20)r-|-20b22=(20)r-20b22=(20)r-20b22=(20)r-20b22=(20)r-o||
|-------------------------------------------------|--------------------------------------------------||
|-------------------------------------------------|--------------------------------------------------||
|-------------------------------------------------|-------------------------------------------------o||
|-------------------------------------------------|--------------------------------------------------||

12.BLACK AND BLUE

1|-------------------------------|---------0-----------0---------|->
2|-------------------------------|-------------0-----------0-----|
3|-------------------------4-/-6-|-7---------------6-----------4-|
4|-------------------------------|-------------------------------|
5|-------------------------2-/-4-|-5---------------4-----------2-|
6|-------------------------------|-0---------------0-----------0-|->
  intro

-|-------------------------------|-------0-----------------------|->
-|-------------------------------|-3-----------3----------0------|
-|-------------------------------|-2----------------2------------|
-|-------------------------------|-0----------------2------------|
-|-------------------------2-h-4-|------------------0----------2-|
-|-----0---3b--0---3b-p0---------|-----------------------------0-|->


-|-------------------------------|-------0---------------0-------|->
-|-------------------------------|-------------0-----------------|
-|-------------------------------|-7----------------6------6-/-4-|
-|------------------2------------|-------------------------------|
-|-------------------------2-/-4-|-5----------------4------4-/-2-|
-|-0--3h-4p-3p-0-----------------|-0----------------0----------0-|->


-|-------------------------------|-------0---------------0-------||
-|-------------------------------|-------------0-----------------||
-|-------------------------4-/-6-|-7----------------7----------2-||
-|-------------------------------|-5----------------4----------2-||
-|-------------------------2-/-4-|-0----------------0----------0-||
-|-----0---3b--0---3b-p0---------|-------------------------------||


-|-------------------------------||
-|-------------------------------||
-|-------------------------4-/-6-||
-|-------------------------------||
-|-------------------------2-/-4-||
-|-------------------------------||
  lick 1

-|-------------------------------|-------------------------------|->
-|-------------------------------|-------------------------------|
-|-----7-------7-----6------6----|-4-----------------------4-/-6-|
-|-------------------------------|-------------------------------|
-|-----5-------5-----4------4----|-2-----------------------2-/-4-|
-|-----0----------0--0---------0-|-----0---3b--0---3b-p0---------|->
  riff 1

-|-------------------------------|-------------------------------|->
-|-------------------------------|-------------------------------|
-|-7----7--------2----2\-------9-|-------------------------4-/-6-|
-|-7----7--------2----2\-------9-|-------------------------------|
-|-5----5--------0----0--------7-|-------------------------2-/-4-|
-|----------0--------------0---0-|-----3b--3b--3b--3b--3b--------|->
                                       harm.- - - - - ->|

-|-------------------------------|-------------------------------|->
-|-------------------------------|-------------------------------|
-|-----7-------7-----6------6----|-4-----------------------4-/-6-|
-|-------------------------------|-------------------------------|
-|-----5-------5-----4------4----|-2-----------------------2-/-2-|
-|-----0----------0--0---------0-|-----0---3b--0---3b-p0---------|->


-|-------------------------------||
-|-------------------------------||
-|-7----7--------2----2\-------9-||
-|-7----7--------2----2\-------9-||
-|-5----5--------0----0--------7-||
-|----------0------------3p0---0-||


-|-------------------------------||-------------12^---------------|
-|-------------------------------||---------7^-------12^----------|
-|-------------------------------||-----5^------------------------|
-|-------------------------------||-------------------------------|
-|-----/-x-\-\-\-\---------------||-------------------------------|
-|-----/-x-\-\-\-\---10-/-14-\---||--------------------------3b---|
  end 1                            end 2    open harm.

-|-------------------------------||-------------------------------|
-|-------------------------------||-------------------------------|
-|-------------------------------||--x\---------------------4-/-6-|
-|-----x-\-\-\-------------------||--x\-\-\-------0h2p0h2p0-------|
-|-------------x-\-\-\-----------||--x\-\-\-\---------------2-/-4-|
-|-------------------------0---0-||-------------------------------|
  end 3                            end 4

-|-------------------------------||
-|-------------------------------||
-|-------------------------4-/-6-||
-|------0-\----~~~~~~------------||
-|----------\--------------2-/-4-||
-|------------\------------------||
  end 5  dive w/bar

-|-------------------------------|-------------------------------|->
-|-------------------------------|-------------------------------|
-|-2-----------------------------|-------------------------------|
-|-2-----------------------------|-------------------------------|
-|-0-----------0x--5x--5x--7v----|-2---------------5x------7v----|
-|-------------------------------|-0-----------7x------7x--------|->
  riff 2

-|-------------------------------|-------------------------------|->
-|-------------------------------|-------------------------------|
-|-2-----------------------------|-------------------------------|
-|-2-----------------------------|----7--5h6p5---5h6p5---5h6p5---|
-|-0-----------0x--5x--5x--7-\---|-------------7-------7-------7-|
-|-------------------------------|-0-----------------------------|->


-|-------------------------------|-------------------------------|->
-|-------------------------------|-------------------------------|
-|-2-----------------------------|-------------------------------|
-|-2-----------------------------|-------------------------------|
-|-0-----------0x--5x--5x--7v----|-2---------------5x------7v----|
-|-------------------------------|-0-----------7x------7x--------|->


-|-------------------------------|-----0-------------------------||
-|-------------------------------|-----0-------------------------||
-|-2-----------------------------|-----4---4---4---4-------------||
-|-2-----------------------------|---------7---6---7---6---4-----||
-|-0-----------0x--5x--5x--7v----|-----------------------------7-||
-|-------------------------------|-0-----------------------------||


-|-------------------------------|-------------------------------|->
-|-------------------------------|-------------------------------|
-|-2-----------------------------|-------------------------------|
-|-2-----------------------------|---------------------5x--------|
-|-0-----------0x--5x--5x--7v----|-2---------------5x------7v----|
-|-------------------------------|-0-----------7x----------------|->
  riff 3

-|-------------------------------|-------------------------------|->
-|-------------------------------|-------------------------------|
-|-2-----------------------------|-------------------------------|
-|-2-----------------------------|----7--5h6p5---5h6p5---5h6p5---|
-|-0-----------0x--5x--5^--7^v\--|-------------7-------7-------7-|
-|-------------------------------|-0-----------------------------|->


-|-------------------------------|-------------------------------|->
-|-------------------------------|-------------------------------|
-|-2-----------------------------|-------------------------------|
-|-2-----------------------------|---------------------5^--------|
-|-0-----------0x--5x--5x--7v----|-2---------------5x------7^v---|
-|-------------------------------|-0-----------7x----------------|->


-|-------------------------------|--------0------0--0------------||
-|-------------------------------|--------0------0--0------------||
-|-2-----------------------------|----2-/-4-\-2--1--2---1--------||
-|-2-----------------------------|-------------------------4---2-||
-|-0-----------0x--5x--5x--7v----|-------------------------------||
-|-------------------------------|-0-----------------------------||


-|-------------------------------|-------------------------------|->
-|-------------------------------|-------------12------10p-9-----|
-|-5v--5v----------7v--7v----7/9v|---------9-------------------9\|
-|-5v--5v----------7v--7v----7/9v|----/9-----------9-------------|
-|-------------------------------|-------------------------------|
-|---------0---0-----------0-----|-------------------------------|->
  riff 4

-|-------------------------------|-------------0---2-------0-----|->
-|-------------------------------|---------4-----------4---5/-7\5|
-|-5v--5v----------7v--7v------4-|----/4-------------------------|
-|-5v--5v----------7v--7v------4-|-------------------------------|
-|-----------------------------2-|-------------------------------|
-|---------0---0-----------0-----|-------------------------------|->


-|-------------------------------|-------------------------------|->
-|-------------------------------|-------------12------10p-9-----|
-|-5v--5v----------7v--7v----7/9v|---------9-------------------9\|
-|-5v--5v----------7v--7v----7/9v|----/9-----------9-------------|
-|-------------------------------|-------------------------------|
-|---------0---0-----------0-----|-------------------------------|->


-|-------------------------------||
-|-------------------------------||
-|-5---------------5-----------4-||
-|-5---------------5-----------4-||
-|-3---------------3-----------2-||
-|---------0---0-----------0-----||


-|-------------------------------|-------------------------------|->
-|-------------------------------|-------------------------------|
-|-------------------------------|-------------------------0h-p2-|
-|-------------------------------|-------------------------------|
-|-----------------5---5^--5^h-7v|--------5---6--6-/-7--7\-------|
-|------------/7-----------------|-------------------------------|->
  solo                                                      trill

-|-------------------------------|-------------------------------|->
-|-------------------------------|-------------------------------|
-|-------------------------------|-7b--t12^r-t14^--t12^--14^br-b-|
-|-----------2^------------------|-------------------------------|
-|-0h2p0-------------------------|-------------------------------|
-|-------3p0-----3br-p0-h3b-t11v-|-------------------------------|->
                                   hold----|   tap harm.bend at 7th

-|-----------------/-------------|-------------------------------|->
-|-------\--------/--------------|----------5v--------5-p-3-h-5--|
-|r14-p-0-\----5^/--------2b-----|-r-/-4-------------------------|
-|---------\----/--------x-------|-------------------------------|
-|----------\-----------x--------|-------------------------------|
-|---------------------x---------|-------------------------------|->
   dive bar            rake
      release w/harm.

-|-------------------------------|-------------------------------|->
-|--7----t-8-p-7-p-5-p-3-h-5-h-7-|-t-8-p-7---t-8-p-7-p-5-p-3-h-7-|
-|-------------------------------|-------------------------------|
-|-------------------------------|-------------------------------|
-|-------------------------------|-------------------------------|
-|-------------------------------|-------------------------------|->


-|-------------------------------|-------------------------------|->
-|-t-8-p-7---t-8-p-7-p-5-p-3-h-7-|-t-8-/-10-p-8--t-10-/-11-p-8---|
-|-------------------------------|-------------------------------|
-|-------------------------------|-------------------------------|
-|-------------------------------|-------------------------------|
-|-------------------------------|-------------------------------|->


-|-------------------------------|-------------------------------|->
-|-t-11-p-9--t-11-/-12-p-9--t-12-|p-10--t-12-/-13-p-10--t-13-/-14|
-|-------------------------------|-------------------------------|
-|-------------------------------|-------------------------------|
-|-------------------------------|-------------------------------|
-|-------------------------------|-------------------------------|->


-|-------------------------------|-------------------------------|->
-|-p-11--t-14-/-15-p-11--t-14-/--|15-p-11--t-15-/-16-p-12--t-15-/|
-|-------------------------------|-------------------------------|
-|-------------------------------|-------------------------------|
-|-------------------------------|-------------------------------|
-|-------------------------------|-------------------------------|->


-|-------------------------------|-------------------------------|->
-|-16-p-13--t-16-/-17-p-13--t-16-|/-17-p-14--t-17-/-18-p-14--t-17|
-|-------------------------------|-------------------------------|
-|-------------------------------|-------------------------------|
-|-------------------------------|-------------------------------|
-|-------------------------------|-------------------------------|->


-|-------------------------------|-------------------------------|->
-|-/-18-p-15--t-18-/-19-p-15b-r--|p-12--------------------12-----|
-|-------------------------------|------14-b--r-p-12--14------12-|
-|-------------------------------|-------------------------------|
-|-------------------------------|-------------------------------|
-|-------------------------------|-------------------------------|->


-|--------------------------15---|--------------15-----15--------|->
-|-----------------15b-----------|--15--15b-15b-15b-v--15---19b--|
-|-0\----------------------------|-------------------------------|
-|----\--------------------------|-------------------------------|
-|------\-----/------------------|-------------------------------|
-|--------\-/--------------------|-------------------------------|->
   bar dive

-|----19-19-19-19----19--19------|-----22------------22b-22br-17-|->
-|-19b--r19----19b-r-19b-19bv-22b|-22b---r22-22-p-20-------------|
-|-------------------------------|-------------------------------|
-|-------------------------------|-------------------------------|
-|-------------------------------|-------------------------------|
-|-------------------------------|-------------------------------|->


-|-----17-16-17-16---------------|-x2-------------------------0--|->
-|-----------------17v---\-------|----------------------------0--|
-|----------------------------x2-|-------x2-x-x2-x2-x0-h-x2--x2--|
-|-------------------------------|-------------------------------|
-|-------------------------------|-------------------------------|
-|-------------------------------|-------------------------------|->


-|-0---0---0---0---0---0---0---0-|-0---0---0---0---0---0---0---0----|
-|-0---0---0---0---0---0---0---0-|-0---0---0---0---0---0---0---0----|
-|-2---2b--2---2---2---2---2---2-|-2---2---2---2---2---2---2---2----|
-|-------------------------------|----------------------------------|
-|-------------------------------|----------------------------------|
-|-------------------------------|----------------------------------|
       gradual bend to full------------gradual release--------------|

-|-0-/-0-------------------------|----0--0--0--0-----0--0--0-----||
-|-0-/-0---3---5-p-3---5-p-3-p-0-|-3/-5--5--5--5--3/-5--5--5-----||
-|-2-/-4-------------------------|-------------------------------||
-|-------------------------------|-------------------------------||
-|-------------------------------|---------------------------12\-||
-|-------------------------------|---------------------------12\-||


-|-------------------------------|-------------------------------|->
-|-------------------------------|-------------------------------|
-|---7---------------------------|---9--------x-\----------------|
-|---7---------------------------|---9--------x-\-x-\------------|
-|---5---------------------------|---7------------x-\-x-\--------|
-|-------------------------------|---0----------------x-\--------|->
  riff 5

-|-------------------------------|-------------------------------|->
-|-------------------------------|-------------------------------|
-|---7--7--7---------------------|---9---\----x-\----------------|
-|---7--7--7---------------------|---9---\----x-\-x-\------------|
-|---5--5--5-------------------0-|---7---\--------x-\-x-\--------|
-|-------------------------------|---0----------------x-\--------|->


-|-------------------------------|-------------------------------|->
-|-------------------------------|-------------------------------|
-|---7--7--7---------------------|---9--9--9---\------x-\--------|
-|---7--7--7---------------------|---9--9--9---\------x-\-x-\----|
-|---5--5--5---------------------|---7--7--7---\----------x-\----|
-|-------------------------------|---0--0--0---------------------|->


-|-------------------------------|-------------------------------||
-|-------------------------------|-------------------------------||
-|--7-----7-----7----------------|-9---------------------\-------||
-|--7-----7-----7-----7-----7----|-9---------------------\-------||
-|--5-----5-----5-----7-----7----|-7---------------------\-------||
-|--------------------5-----5----|-0-----------------------------||


-|---------0-----------0---------|-------------------------------|->
-|-------------0-----------0-----|-------------------------------|
-|-7---------------6-----------4-|-------------------------------|
-|-------------------------------|-------------------------------|
-|-5---------------4-----------2-|-------------------------2-h-4-|
-|-0-----------------------------|---------3b------3b-p0---------|->
  riff 6 (clean)

-|-------0-----------------------|-------------------------------|->
-|-3-----------0----------0------|-------------------------------|
-|-2----------------2------------|-------------------------4-/-6-|
-|-0----------------2----------2-|-----------0h2p0h2p0h2p0-------|
-|------------------0----------2-|-------------------------2-/-4-|
-|-----------------------------0-|-0---3b-p0---------------------|->


-|---------0-----------0---------|-------------------------------|->
-|-------------0-----------0-----|-------------------------------|
-|-7---------------6-----------4-|-------------------------------|
-|-------------------------------|-------------------------------|
-|-5---------------4-----------2-|-------------------------2-h-4-|
-|-0---------------0-----------0-|-----0---3b--0---3b-p0---------|->


-|-------0-----------------------|-------------------------------||
-|-3-----------3----------0------|---------------8---------------||
-|-2--2-------------2------------|---------------7---------4-/-6-||
-|-0----------------2----------2-|---------------6---------------||
-|------------------0----------2-|---------------7---------2-/-4-||
-|-----------------------------0-|-------------------------------||
  semi-clean

-|-------------------------------||
-|-------------------------------||
-|--7-----7-----7-----2-----2----||
-|--7-----7-----7-----2-----2----||
-|--5-----5-----5-----0-----0----||
-|-------------------------------||
  riff 7

-|-------------------------------||------------------12^----------|
-|-------------------------------||------------7^-----------------|
-|-------------------------4-/-6-||------5^-----------------4-/-6-|
-|-2---------x-\-\---------------||-2-----------------------------|
-|-2---------x-\-\-\-------2-/-4-||-2-----------------------2-/-4-|
-|-0-----------------------------||-0-----------------------------|
  end 6                            end 7

-|-------------------------------||-------------------------------|
-|-------------------------------||-------------------------------|
-|-9-----------------------4-/-6-||-9-----------------------------|
-|-9---------x-\-\---------------||-9-----------------------------|
-|-7---------x-\-\-\-------2-/-4-||-7-----------------------------|
-|-0-----------------------------||-0-----------------------------|
  end 8                            end 9

-|--0\---------------------------|-------------------------------|->
-|--0-\--------------------------|-------------------------------|
-|--0--\-------------------------|---/7-----7-----6-----6--\--4--|
-|--0---\------------------------|-------------------------------|
-|--0----\-----------------------|---/5-----5-----4-----4--\--2--|
-|--0-----\~~~~~~~~~~~~~~~~~~~~--|-------------------------------|->
  outro    dive all strings and shake

-|-------------------------------|-------------------------------|->
-|-------------------------------|-------------------------------|
-|-------------------------4-/-6-|---------7---\-----------2-----|
-|-------------------------------|---------7---\-----------2---2-|
-|-------------------------2-/-4-|-5x--5x----------0x-0x-------2-|
-|-------------------------------|-----------------------------0-|->


-|-0-----------------------------|-------------------------------|->
-|-0---------------3---3---------|-------------------------------|
-|-----2br-p0------0---0---0-----|----------7-----6-----6--\--4--|
-|-------------2-----------0h-2v\|----7x-------------------------|
-|-------------------------------|----5x----5-----4-----4--\--2--|
-|-------------------------------|-------------0-----------------|->


-|-------------------------------|-------------------------------|->
-|-------------------------------|-------------------------------|
-|---------------0---------------|-------------7\--------------9-|
-|---------------0------2v----\--|-5-/-7-------7\--------------9-|
-|-------------------------------|-5-/-7---7^--5\--0x----------7-|
-|-----3b--p0--------------------|---------------------3---0-----|->


-|----------------7--------------|-------------------------------|->
-|----------7-7-7-8--------------|-------------------------------|
-|----------9-9-9-9--------4-/-6-|----7-----7-----6-----6--\--4--|
-|----------9-9-9-9--------------|-------------------------------|
-|-------------------------2-/-4-|----5-----5-----4-----4--\--2--|
-|-------------------------------|----0--------0-----------------|->


-|-------------------------------|-------------------------------|->
-|-------------------------------|----------3--------------------|
-|-------------------------------|------2---------2-----2--------|
-|---------------------2---------|--0-------------2-----2----2---|
-|-------------------------2-h-4-|----------------0-----0----2---|
-|-----0---3b-p0---3b------------|---------------------------0---|->


-|-------------------0-----------|-------------------------------|->
-|-------------------0-----------|-------------------------------|
-|-------------------------4-/-6-|----7-----7-----6-----6--\--4--|
-|-------------------------------|-------------------------------|
-|-------------------------2-/-4-|----5-----5-----4-----4--\--2--|
-|-----0x--3br-p0----------------|----0--------0-----------------|->


-|-------------------------------|-------------------------------|->
-|-------------------------------|-------------------------------|
-|-------------------------4-/-6-|----7-----7-----2-----2\-----9\|
-|-------------------------------|----7-----7-----2-----2\-----9\|
-|-------------------------2-/-4-|----5-----5-----0-----0------7\|
-|-----0---3b------3b-p0---------|--------------------------0----|->


-|-------------------------------|-------------------------------|->
-|-------------------------------|-------------------------------|
-|-------------------------4-/-6-|----7-----7-----6-----6--\--4--|
-|-----0-h-2-h-4--5-/-6----------|-------------------------------|
-|----------------4-/-5----2-/-4-|----5-----5-----4-----4--\--2--|
-|-0-----------------------------|----0--------0-----------------|->


-|-------------------------------|-------------------------------||
-|-------------------------------|-------------------------------||
-|-------------------------------|----------7\----------2--------||
-|--------------------------2----|----------7\-----2x---2---2----||
-|-------------------------------|-2-/-5----5\-----0x---0---2----||
-|-----0---3br--p0---3b----------|--------------------------0----||

13.JUMP

Intro and main riff (1)
C#------------|
G#------------|
E-------------|
B-------------|
F#----8-----6-|
B---0----0----|

Intro and main riff (2)
C#---------------------------|
G#---------------------------|
E----------------------------|
B----------------------------|
F#----8-----6---6-6--6-6-6-6-|
B---0----0-------------------|

Pre-Verse
C#--------------|
G#--------------|
E---*4-*4-*3-*2-|
B---------------|
F#--------------|
B---------------|
(*=Artificial harmonic)

Verse (1)
C#---------------------|
G#---------------------|
E----------------------|
B---6s0--0-0-0-0-0-0-0-|
F#--6s0--0-0-0-0-0-0-0-|
B---6s0--0-0-0-0-0-0-0-|

Verse (2)
C#-----------------------|
G#-----------------------|
E------------------------|
B---6s3-3-3--10-10-10-10-|
F#--6s3-3-3--10-10-10-10-|
B---6s3-3-3--10-10-10-10-|

Pre-Chorus
C#-----------------------------|
G#-----------------------------|
E---7---9-10-12---15-14-15---6-|
B------------------------------|
F#--5---7-8--10---13-12-13---4-|
B------------------------------|

Chorus
C#--------------------|
G#--------------------|
E---------------------|
B---0-----10------5s8-|
F#--0-----10------5s8-|
B---0-----10------5s8-|
(H=Hold)         (h)

14.TOP OF THE WORLD

Don't Know

15.PRETTY WOMEN

Intro
 4/4
  Gtr I
  Q  E E +Q   Q    Q.   E +E  Q.     Q  E E +E  Q.     Q.   E +E  E   Q
|----------------|-----------------|-----------------|--------------------|
|------0-(0)-----|------0-(0)------|------0-(0)------|------0-(0)---------|
|-------------2--|------------2----|------------2----|------------2-------|
|----2-----------|-----------------|----2------------|--------------------|
|-0--------------|-----------------|-0---------------|--------------/10\--|
|----------------|-2---------------|-----------------|-2------------/10\--|


                             \1/   \1/         \1/
          ~~~~~~~~~~~
  E E E E H      +E   Q.    +E.   +S    +E    +E
|--------------|-------------------------------------|
|--------------|-------------------------------------|
|--------------|--------()-()-()-()------------------|
|--------------|--------()-()-()-()------------------|
|---------5----|-(5)---------------------------------|
|-0-0-4-7------|-------------------------------------|


                     \1.5
          ~~~~~~~~~~~
  E E E E H      +E  Q.     +Q     Q
|--------------|------------------------|
|--------------|------------------------|
|--------------|------------------------|
|--------------|------------------------|
|---------5----|-(5)-0------(0)---------|
|-0-0-4-7------|-----------------/14\---|


  PM------------|       PM--------|       PM--------|
  E E E E E E E E   E E E E E E E E   E E E E E E E E
|-----------------|-0-0-------------|-0-0-------------|
|-----------------|-0-0-------------|-0-0-------------|
|-----------------|-----------------|-----------------|
|-----------4-----|-----------4-----|-----------4-----|
|---------5---7-5-|---------5---7-5-|---------5---7-5-|
|-0-0-4-7---------|-----4-7---------|-----4-7---------|


                     Verse
                  $
      PM--------|
  E E E E E E E E     Q  E E +Q   Q    Q.   E +E  Q.
|-0-0-------------||-----------------|-----------------|
|-0-0-------------||o------0-(0)-----|------0-(0)------|
|-----------------||--------------2--|------------2----|
|-----------4-----||-----2-----------|-----------------|
|---------5---7-5-||o-0--------------|-----------------|
|-----4-7---------||-----------------|-2---------------|


  PM|                                 PM----|       PM
  E E E E +Q   Q    Q.   E +E  Q.     E E E E E E E E
|-----------------|-----------------|-----------------|
|-------0-(0)-----|------0-(0)------|-----3---2-------|
|-----2--------2--|------------2----|---2---2---4-2---|
|---2-------------|-----------------|-0-------------0-|
|-0---------------|-----------------|-----------------|
|-----------------|-2---------------|-----------------|


                                       To Coda
 2/4       4/4
                                PM--|
  E E E E   Q  E E Q  E E   +E  E E E E E E E
|---------|---------------|--------------------|
|-3-2-----|--------7------|-----------7---7----|
|-----4-2-|----7------9---|-------9---7---7-9--|
|---------|------9------9-|-(9)-9---9---9------|
|---------|-------------7-|-(7)----------------|
|---------|-0-----------0-|-(0)----------------|


                                     PM------------|
  Q  E E Q  E E   Q  E E S S E E E   E E E E E E E E
|---------------|------------------|-----------------|
|--------7------|------------------|-----------------|
|----7------7h9-|----9---7---------|-----------------|
|------9----7h9-|------9-7h9p7-6---|-----------4-----|
|---------------|----------------7-|---------5---7-5-|
|-0-------------|-0----------------|-0-0-4-7---------|


                                     1.                   2.
      PM--------|       PM--------|       PM--------|                   PM
  E E E E E E E E   E E E E E E E E   E E E E E E E E     E E E E E E E E
|-0-0-------------|-0-0-------------|-0-0--------------||-0-0--------------||
|-0-0-------------|-0-0-------------|-0-0-------------o||-0-0--------------||
|-----------------|-----------------|------------------||------------------||
|-----------4-----|-----------4-----|-----------4------||-----------4------||
|---------5---7-5-|---------5---7-5-|---------5---7-5-o||---------5---7-5--||
|-----4-7---------|-----4-7---------|-----4-7----------||-----4-7----------||


 Chorus
                                                                        ~~~
   Q.   E +E  Q  E   E E E E +E  Q  E   E E E E E E E E   E Q  E S S E +Q
|-^1----------0----|-------3-(3)------|-----------------|---0----------------|
|-^3----3-(3)----3-|-------------3----|-----------------|---0--1-3h5p3-(3)---|
|-^2---------------|-----0----------0-|-----5-----5-----|-2------------------|
|-^0---------------|---0--------------|---5-----5-----2-|--------------------|
|------------------|------------------|-3-----2-----0---|--------------------|
|------------------|-3----------------|-----------------|--------------------|


  Q   E E E S S E E   E E E E +E  S S E E   E E E E E E E E   E Q  E E E Q
|----^1-1-1-0-0-0---|-------3-(3)---------|-----------------|----------------|
|----^3-3-3-3-3-3---|-------------3-3-----|-5-5---5---5---6-|-6-6--6-6-5-5\--|
|----^2-2-2-2-2-2---|-----0-----------0---|-5-5---5---5---5-|-5-5--5-5-5-5\--|
|-0-----------------|---0-------------0---|-5-5---5---5-----|---7------5-5\--|
|-------------------|---------------------|-----3---3---3---|----------------|
|-------------------|-3-------------------|-----------------|----------------|


  Q  E E +E  Q  E   E E E E +Q   S E.   E E E E E E E E
|------------0----|-------3-(3)-------|-----------------|
|------3-(3)----3-|--------------3----|-----------------|
|----2------------|-----0----------0--|-----5-----5-----|
|-0---------------|---0---------------|---5-----5-----2-|
|-----------------|-------------------|-3-----2-----0---|
|-----------------|-3-----------------|-----------------|


  E Q  E S S S S S S S S   Q  E E +E  Q.     E E E E +E  E Q
|---0--------------------|-----------------|-------3-(3)------|
|---0--3-3h5p3h5p3h5p3---|-3--3-1-(1)-3----|-------------3----|
|-2----------------------|-2---------------|-----0---------0--|
|------------------------|-0---------------|---0-----------0--|
|------------------------|-----------------|------------------|
|------------------------|-----------------|-3----------------|


  E E E E E E E E   E E E E E E  Q      Q.   E +E  Q.
|-----------------|------------------||-----------------|
|-----------------|------------------||------0-(0)------|
|-----5-5-5-5-5-5-|-2-2-2-2-2-2------||------------2----|
|---5---5-5-5-5-5-|-2-2-2-2-2-2------||-----------------|
|-3-----3-3-3-3-3-|-0-0-0-0-0-0------||-----------------|
|-----------------|-------------/9\--||-2---------------|


                    PM------------|       PM--------|
  E Q  E +E  Q  E   E E E E E E E E   E E E E E E E E
|-----------------|-----------------|-0-0-------------|
|------3-(3)-2----|-----------------|-0-0-------------|
|---2-----------2-|-----------------|-----------------|
|-0---------------|-----------4-----|-----------4-----|
|-----------------|---------5---7-5-|---------5---7-5-|
|-----------------|-0-0-4-7---------|-----4-7---------|


                                       D.S. al Coda
      PM--------|       PM--------|
  E E E E E E E E   E E E E E E E E   Q   Q  Q  Q
|-0-0-------------|-0-0-------------|---------------||
|-0-0-------------|-0-0-------------|---------------||
|-----------------|-----------------|---------------||
|-----------4-----|-----------4-----|-2/--------x\--||
|---------5---7-5-|---------5---7-5-|---------------||
|-----4-7---------|-----4-7---------|---------------||


  &
  Q  E E Q  E E   +E  Q  E E E E E   Q  E E Q  E E   +Q   Q   H
|-------------7-|-(7)--------------|---------------|------------------|
|--------7------|-----7----7---7---|--------7------|------------------|
|----7------9---|--------9---9---7-|----7------9---|------9\----------|
|------9--------|------------------|------9------9-|-(9)------0tr2----|
|---------------|------------------|-------------7-|-(7)--------------|
|-0-------------|------------------|-0-----------0-|-(0)--------------|


  Q  E E Q  E E   +Q   E E E E E S S   Q  E E Q  E E
|---------------|--------------------|---------------|
|--------7------|--------------------|--------7------|
|----7------9---|------9---7-7-7-----|----7------9---|
|------9------9-|-(9)----9-9-9-9-----|-9----9------9-|
|-------------7-|-(7)----------------|-7-----------7-|
|-0-----------0-|-(0)------------0-0-|-0-----------0-|


  +Q   Q   H         Q  E E Q  Q    Q   Q  H
|------------------|--------------|-------------|
|------------------|--------7-----|-------------|
|------9\----------|----7------7--|-------------|
|-(9)------0tr2----|--------------|-9\----------|
|-(7)--------------|--------------|-7\----------|
|-(0)--------------|-0------------|-0\----------|


                                             \1/   \1/         \1/
                          ~~~~~~~~~~~
  H    Q    Q     E E E E H      +E   Q.    +E.   +S    +E    +E
|---------------|--------------|-------------------------------------|
|---------------|--------------|-------------------------------------|
|---------------|--------------|--------()-()-()-()------------------|
|---------------|--------------|--------()-()-()-()------------------|
|---------/14\--|---------5----|-(5)---------------------------------|
|---------/14\--|-0-0-4-7------|-------------------------------------|


                     \1.5
          ~~~~~~~~~~~                    PM------------|
  E E E E H      +E  Q.     +Q     Q     E E E E E E E E
|--------------|-----------------------|-----------------|
|--------------|-----------------------|-----------------|
|--------------|-----------------------|-----------------|
|--------------|-----------------------|-----------4-----|
|---------5----|-(5)-0------(0)--------|---------5---7-5-|
|-0-0-4-7------|-----------------/14\--|-0-0-4-7---------|


        PM----------------------------|
    E E E E E E E E  4x E E E E E E E E   E E Q  H
||--0-0--------------||-----------------|-------------*|
||o-0-0-------------o||-----------------|-------------*|
||-------------------||-----------------|-2-2---------*|
||------------4------||-----------4-----|-2-2---------*|
||o---------5---7-5-o||---------5---7-5-|-0-0---------*|
||------4-7----------||-0-0-4-7---------|-------------*|

16.LOVE WALKS IN

Intro Solo

E:--------------------------------------------------------------------------------------|
B:--------------------------------------------------------------------------------------|
G:------------12-h-14--14----12-12-h-14-tr--15-14------12-12-h-14-10-10-----------------|
D:----------------------------------------------------------------------10p8-p7-h8-p7-5-|
A:--------------------------------------------------------------------------------------|
E:-----/S\------------------------------------------------------------------------------|


-----------------------------------------------------------------|
-----------------------------------------10-13-10-13b-10h13p10---|
-----------------------------------------------------------------|
---12-h-14--14---14b--12-12-h-14---------------------------------|
----------------------------------15-----------------------------|
-----------------------------------------------------------------|

---------------------------------20---------------|
---13-10-----20b-----20r-p-18-----20b-------------|
---------12-----------------------------------19--|
--------------------------------------------------|
--------------------------------------------------|
--------------------------------------------------|


Main Solo (this solo is after the second chorus)

E------------15-------17-------------15--------15-------17h20p17-20b---|
B----/s18-------18b----- 20-- /18------18b------18---------------------|
G----------------------------------------------------------------------|
D----------------------------------------------------------------------|
A----------------------------------------------------------------------|
E----------------------------------------------------------------------|


-------------------------------------------------------------15-------17------------|
----18--20-20b-r-18-20b-r-18-22p18-/s-20----20\s-----/s18------18b------20b--/s18---|
------------------------------------------------------------------------------------|
------------------------------------------------------------------------------------|
------------------------------------------------------------------------------------|
------------------------------------------------------------------------------------|


---15------------17-18-20p18h20p18p17------------------------------------------------------------|
---18b--20--18------------------------------13b-13b-r-10-----10----------------------------------|
------------------------------------------------------------------------12------12b-r-10---------|
---------------------------------------------------------------------------------------------12--|
-------------------------------------------------------------------------------------------------|
-------------------------------------------------------------------------------------------------|

----------------------------------------------------------------------------------------------------|
--10-----------------------------------------------------------------8h10-6s8-12p8-10-12-13-12--13--|
------10---------------------------------------------------7h9h10-----------------------------------|
---------------------------------------7---------7h8h10---------------------------------------------|
-----------------7h8h10-7h8h10----8h10--------------------------------------------------------------|
-----------10---------------------------------------------------------------------------------------|

song switches to softer beat but still has a lead guitar                                 
                                                        ====
----------15b-r-15b-r--20b-----------------------------15/--20-------------------------------|
-----13b--------------------------------------------------------------20p18h20p18p17---------|
-12-------------------------19b-r---17------13--/s--17---------19b-r---------------------17--|b
---------------------------------------------------------------------------------------------|
---------------------------------------------------------------------------------------------|
---------------------------------------------------------------------------------------------|

17.BEAUTIFUL GIRLS

Main Riff (intro)		1,2,3| 4
-------------------------------------|---------------------------|
-------------------------------------|---------------------------|
----2-H-H--2----2-2-----------------.|---------------------------|
--2-2--3-4-2----2-2-----P---X-5-5/6-.|-7-6\4---------------------|
--------------------4--5-2--X-5-6/7--|-5-4\2---------------------|
--------------2----------------------|---------------------------|
              T

Verses (slightly muted)
-------------------O-|
-------------------O-|
---------------------|
----------4---P------| Etc. He does simple variations on this throughout
------2-4-5--4-O-4---|      The verses.
--O-O-O--------------|

Bridge (These are the chords, I'm not going to try to notate the rythmn)
F#/A / / / / /	         B / / / / / / / / / /
---------------------------|-------------------------|
--2------------------------|-------------------------|
--2-------------P-P-------.|------------------------.|
--2------------4-2-O------.|-4--------4-2-O---4-----.|
--O------------------2-----|-2--------------2-2------|
--2------------------------|-------------------------|
..What a sweet talkin honey
whith a little bit of money....

E    F# G        a      B   C
Here I am,  Your man of the world
E   F#  G        a      B  C
All I need, Is a beautiful girl
G     C      D       E
Ahhhh yeah, beautiful girls

(And in the outro chorus he does this:)
D    a              E
Ahhh yeah, beautiful girls

18.CANT STOP LOVIN YOU

Intro
  Q=116
 4/4
  Gtrs I, II, III
  S S   E E E E +E  Q  E   +W
|-0-0-|-0-0-0-0-(0)-0--0-|-(0)----|
|-3-3-|-3-2-2-2-(2)-0--2-|-(2)----|
|-2-2-|-2-2-2-2-(2)-2--2-|-(2)----|
|-2-2-|-2-2-2-2-(2)-2--2-|-(2)----|
|-0-0-|-0-0-0-0-(0)-0--0-|-(0)----|
|-----|------------------|--------|


  Gtr IV
   ~~~~~~~~~~~~~~~~~~~~~~~~~
   W                    +Q.      a      +E   +E   +Q    E
|--------------------|------------------------------------|
|-10-----------------|-(10)-----10b12==(10)-(10)r(10)---9-|
|--------------------|------------------------------------|
|--------------------|------------------------------------|
|--------------------|------------------------------------|
|--------------------|------------------------------------|
|
| Gtrs I, II, III
|    PM|
|  E E E E  E  E E E     E  E E          E    E    E  E E
|--0-----0-(0)-----0-|---0---------------0---(0)------0-0-|
|--3-----2-(2)-----0-|---0---------------2---(2)------0-0-|
|--2-----2-(2)-----2-|---2---------------2---(2)------2-2-|
|--2-----2-(2)-----2-|---2---------------2---(2)----------|
|--0-0-0-0--0--0-0-0-|---0--0-0----------0----0----0----0-|
|--------------------|------------------------------------|


   ~~~~~~~~~~~~~~~~~~~~~~~~~
   W                    +Q.      a      +E   +Q     +E  E
|--------------------|-------------------------------------|
|-10-----------------|-(10)-----10b12==(10)-(10)r==(10)-9--|
|--------------------|-------------------------------------|
|--------------------|-------------------------------------|
|--------------------|-------------------------------------|
|--------------------|-------------------------------------|
|
|  E E E E  E  E E E     E  E E          E    E  E   E  E
|--0-----0-(0)---0-0-|---0---------------0---(0)-----0--0--|
|--3-----2-(2)---0-2-|---0---------------2---(2)-----0--0--|
|--2-----2-(2)---2-2-|---2---------------2---(2)-----2--2--|
|--2-----2-(2)---2-2-|---2---------------2---(2)-----2--2--|
|--------------------|-------------------------------------|
|--2-2-2-2--2--2-2-2-|---2--2-2----------2----2--2---2--2--|


   ~~~~~~~~~~~~~~~~~~
   H.            +E   a      +E     +Q.     a      +E   +Q     +E  E
|--------------------------------|-----------------------------------|
|-10------------(10)-10b12==(10)-|-(10)r---10b12==(10)-(10)r==(10)-9-|
|--------------------------------|-----------------------------------|
|--------------------------------|-----------------------------------|
|--------------------------------|-----------------------------------|
|--------------------------------|-----------------------------------|
|
|  E  E E E E E   E           E     +Q.             E   +E  Q      E
|-------------0---0-----------0--|--(0)-------------0---(0)-0--------|
|--3--------3-2---2-----------0--|--(0)-------------0---(0)-0--------|
|--2--------2-2---------------1--|--(1)-------------2---(2)-1--------|
|--0--0-0-0-0-0---------------2--|--(2)-------------2---(2)-2--------|
|-----------------------------2--|--(2)-------------2---(2)-2------0-|
|-----------------------------0--|--(0)-------------0---(0)-0--------|


   ~~~~~~~~~~~~~~~~~~~~~~~~~~~
   W                      +W
|----------------------|---------||
|-10-------------------|-(10)----||
|----------------------|---------||
|----------------------|---------||
|----------------------|---------||
|----------------------|---------||
|
|                |-3-|
|  Q.   E +E  Q  S S S     W
|--0----0-(0)-0--0-0-0-|---0-----||
|--3----2-(2)-0--2-2-2-|---2-----||
|--2----2-(2)-2--2-2-2-|---2-----||
|--2----2-(2)-2--2-2-2-|---2-----||
|--0----0-(0)-0--0-0-0-|---0-----||
|----------------------|---------||

[ Tab from: http://www.guitartabs.cc/tabs/v/van_halen/best_of_both_worlds_tab_ver_2.html ]
 Verse 1
  Gtrs I, II, III
  E E E E  E  E E E   E E E E  E  E E E
|-0-----0-(0)-------|-------0-(0)---0-0-|
|-3-----2-(2)-----0-|-0-----2-(2)---0-2-|
|-2-----2-(2)-----2-|-2-----2-(2)---2-2-|
|-2-----2-(2)-----2-|-2-----2-(2)---2-2-|
|-0-0-0-0--0--0-0-0-|-0-0-0-0--0--0-0-0-|
|-------------------|-------------------|


  E E E E  E  E E E   E E E E  E  E E E
|-0-----------------|-------0-(0)---0-0--|
|-3-----2-(2)-----0-|-0-----2-(2)---0-2--|
|-2-----2-(2)-----2-|-2-----2-(2)---2-2--|
|-2-----2-(2)-----2-|-2-----2-(2)---2-2--|
|-------------------|--------------------|
|-2-2-2-2--2--2-2-2-|-2-2-2-2--2--2-2-2--|


                                     PM
  E E E E  E  E E E   +Q.   E +E  Q  E
|-0---0-0-(0)-0-----|-------0-(0)-0----|
|-3---3-3-(3)-2---0-|-(0)---0-(0)-0----|
|-2---2-2-(2)-2---1-|-(1)---2-(2)-1----|
|-0-0-0-0--0--0-0-2-|-(2)---2-(2)-2----|
|-----------------2-|-(2)---2-(2)-2--0-|
|-----------------0-|-(0)---0-(0)-0----|


  E E E E  E  E E E   E E E E  E  E E E
|-------------------|-------0-(0)---0-0--|
|-3-----2-(2)-----0-|-0-----2-(2)---0-2--|
|-2-----2-(2)-----2-|-2-----2-(2)---2-2--|
|-2-----2-(2)-----2-|-2-----2-(2)---2-2--|
|-0-0-0-0--0--0-0-0-|-0-0-0-0--0--0-0-0--|
|-------------------|--------------------|


  E E E E  E  E E E   E E E E +E  E E E   E E E E E E E S S
|-0-----------------|-------0-(0)---0-0-|-0---0-0-0-0-------|
|-3-----2-(2)-----0-|-0-----2-(2)---0-2-|-3---3-3-3-2---0-0-|
|-2-----2-(2)-----2-|-2-----2-(2)---2-2-|-2---2-2-2-2---1-1-|
|-2-----2-(2)-----2-|-2-----2-(2)---2-2-|-0-0-0-0-0-0-0-2-2-|
|-------------------|-------------------|---------------2-2-|
|-2-2-2-2--2--2-2-2-|-2-2-2-2-(2)-2-2-2-|---------------0-0-|


  Q.   E +E  Q  S S   E E Q  +E  q  S S   E E E E +E  E E S S
|-0----0-(0)-0------|-------------------|-------2-(2)-2-2-----||
|-0----0-(0)-0------|-2----------2------|-----2-------2-2-3-3-||
|-1----1-(1)-1------|---2--------2------|---2---------2-2-2-2-||
|-2----2-(2)-2------|-----4--(4)-4------|-4-----------4-4-0-0-||
|-2----2-(2)-2--2s4-|------------4--2s4-|---------------------||
|-0----0-(0)-0------|-------------------|---------------------||


 Pre-Chorus
  D                                 Bm
  Gtrs I, III
  W              +W                 W              +W
  |               |                 |               |
  /               /                 /               /

  Gtr II
                                           PM       PM------------|
  H    E E E E    E E E E E E E E   H    E E E E    E E E E E E E E
|------0-0-0-0-|--0-0-0-0-0-0-0-0-|-2----2---2---|-------------------|
|-3----5-5-5-5-|--3-3-3-3-2-2-2-2-|-3----2-2-2-2-|--2-2-2-2-2-2-2-2--|
|-2------------|------------------|-4------------|--4-4-4-4-2-2-2-2--|
|-0------------|------------------|-4------------|-------------------|
|--------------|------------------|-2------------|-------------------|
|--------------|------------------|--------------|-------------------|


  W             +W                W                 W
  |              |
  /              /

                                Gtrs I, II, III
                 PM----------|
  H    E E Q     E E E E E E Q    H.      +E  S S   Q.   E H
|-------------|-----------------|-0-------(0)-0-0-|-0----0-0----||
|-3-----------|-----------------|-0-------(0)-0-0-|-0----0-0----||
|-0--------0--|------0-0--------|-1-------(1)-2-2-|-2----1-1----||
|-0----4-4----|--2-2-2-2-0-0-0--|-2-------(2)-2-2-|-2----2-2----||
|-------------|-----------------|-2-------(2)-2-2-|-2----2-2----||
|-3-----------|-----------------|-0-------(0)-0-0-|-0----0-0----||


 Chorus
  $
  Gtr I
  W                   +W                    W
|-------------------|---------------------|-------------------|
|-------------------|---------------------|-------------------|
|-------------------|---------------------|-------------------|
|-2-----------------|-(2)-----------------|-------------------|
|-0-----------------|-(0)-----------------|-4-----------------|
|-------------------|---------------------|-2-----------------|
|
| Gtrs II, III
|   PM|
| E E E E  E  E E E    E  E E E  E  E E E   E E E E  E  E E E
|-0-----0-(0)-----0-|--0------0-(0)---0-0-|-0-----0-(0)---0-0-|
|-3-----2-(2)-----0-|--0------2-(2)---0-0-|-3-----2-(2)---0-2-|
|-2-----2-(2)-----2-|--2------2-(2)---2-2-|-2-----2-(2)---2-2-|
|-2-----2-(2)-----2-|--2------2-(2)-------|-2-----2-(2)---2-2-|
|-0-0-0-0--0--0-0-0-|--0--0-0-0--0--0---0-|-------------------|
|-------------------|---------------------|-2-2-2-2--2--2-2-2-|


                                                           To Coda
  +H        +E  Q.       H.           +E  E    H.           +E  S S
|----------------------|--------------------|-------------------------|
|----------------------|-3------------(3)---|-------------------------|
|----------------------|-2------------(2)---|-------------------------|
|----------------------|-0------------(0)---|-------------------2-2---|
|-(4)-------(4)-x-----|-0------------(0)---|--2------------(2)-0-0----|
|-(2)-------(2)--------|------------------0-|--0------------(0)-------|
|
|  E  E E E  E  E  E E   E  E E E E E  E  E   +Q.   E +E  Q     E
|--0------0-(0)----0-0-|------------0--0--0-|-(0)---0-(0)-0---------|
|--0------2-(2)----0-0-|-3--------3-2--2--0-|-(0)---0-(0)-0---------|
|--2------2-(2)----2-2-|-2--------2-2-----1-|-(1)---2-(2)-1---------|
|--2------2-(2)----2-2-|-0--0-0-0-0-0-----2-|-(2)---2-(2)-2---------|
|----------------------|------------------2-|-(2)---2-(2)-2-----0---|
|--2--2-2-2--2--2--2-2-|------------------0-|-(0)---0-(0)-0---------|


  Asus4A    Asus2        E
  Gtrs II, III
  Q.   E +E Q.           Q   Q   H
  |    |  | |            |
  /    /  / /            /

  Gtr I
  W                      q   Q   H
|----------------|-----------------------||
|----------------|-----------------------||
|----------------|-----------------------||
|-2--------------|-----------------------||
|-0--------------|-------2---------------||
|----------------|-------0---------------||
|
| Gtr V
| W                a a a E E E E E E E E
|----------------|-------5-7-4---0-------||
|----------------|-----5---------0-------||
|----------------|---6---------1-2p1-----||
|----------------|-5-----------------4s2-||
|----------------|-----------------------||
|----------------|-----------------------||


 Verse 2
  Gtrs I, II, III
  E E E E  E  E E E   E E E E  E  E E E   E E E E  E  E E E
|-0-----0-(0)-------|-------0-(0)---0-0-|-0---------------------|
|-3-----2-(2)-----0-|-0-----2-(2)---0-2-|-3-----2-(2)-----0-----|
|-2-----2-(2)-----2-|-2-----2-(2)---2-2-|-2-----2-(2)-----2-----|
|-2-----2-(2)-----2-|-2-----2-(2)---2-2-|-2-----2-(2)-----2-----|
|-0-0-0-0--0--0-0-0-|-0-0-0-0--0--0-0-0-|-----------------------|
|-------------------|-------------------|-2-2-2-2--2--2-2-2-----|
|
| Gtr IV
|                                                         T
| W                   W                   H        Q    E E
|-------------------|-------------------|-----------------------|
|-------------------|-------------------|-----------------------|
|-------------------|-------------------|-----------------------|
|-------------------|-------------------|-----------------------|
|-------------------|-------------------|-----------------------|
|-------------------|-------------------|-----------------5(10)-|


   E      E     E E      E  E     E E
|-----------------0-----(0)-------0-0------|
|--0--------------2-----(2)-------0-2------|
|--2--------------2-----(2)-------2-2------|
|--2--------------2-----(2)-------2-2------|
|------------------------------------------|
|--2------2-----2-2------2--2-----2-2------|
|
|  T      T       T         T       T
| +E      Q       Q         Q       E
|------------------------------------------|
|-----------------------------------5(10)--|
|---------------------------6(11)----------|
|-----------------7(12)--------------------|
|---------7(12)----------------------------|
|-(5(10))----------------------------------|


                                       PM
   E  E E E  E  E E E   +Q.   E +E  Q  E
|--0----0-0-(0)-0-----|-------0-(0)-0----|
|--3----3-3-(3)-2---0-|-(0)---0-(0)-0----|
|--2----2-2-(2)-2---1-|-(1)---2-(2)-1----|
|--0--0-0-0--0--0-0-2-|-(2)---2-(2)-2----|
|-------------------2-|-(2)---2-(2)-2--0-|
|-------------------0-|-(0)---0-(0)-0----|
|
| +W                     W
|---------------------|------------------|
|-(5)-----------------|------------------|
|---------------------|------------------|
|---------------------|------------------|
|---------------------|------------------|
|---------------------|------------------|


  E E E E  E  E             E  E               E  E E     E      E     E  E   E
|-------------------------------------------|-------------0-----(0)-------0---0---|
|-3-----2-(2)------------------0------------|--0----------2-----(2)-------0---2---|
|-2-----2-(2)------------------2------------|--2----------2-----(2)-------2---2---|
|-2-----2-(2)------------------2------------|--2----------2-----(2)-------2---2---|
|-0-0-0-0--0--0-------------0--0------------|--0--0-0-----0------0-----0--0---0---|
|-------------------------------------------|-------------------------------------|
|
|             T                T               ~~~  T     T
| H        E  S        +S  +E  S        +S    +Q    E     E     +Q       +E  +E
|-------------------------------------------|-------------------------------------|
|-------------------------------------------|-------------------------------------|
|-------------6(11)b7==(6)r(6)-6(11)b7==(6)r|=(6)---------------------------------|
|-------------------------------------------|-------7(12)-------------------------|
|-------------------------------------------|-------------7(12)-(7)b9====(7)r(7)--|
|-------------------------------------------|-------------------------------------|


   E  E E E  E  E E E   E E E E +E  E E E   E E E E E E E S S
|--0------------------|-------0-(0)---0-0-|-0---0-0-0-0-------|
|--3------2-(2)-----0-|-0-----2-(2)---0-2-|-3---3-3-3-2---0-0-|
|--2------2-(2)-----2-|-2-----2-(2)---2-2-|-2---2-2-2-2---1-1-|
|--2------2-(2)-----2-|-2-----2-(2)---2-2-|-0-0-0-0-0-0-0-2-2-|
|---------------------|-------------------|---------------2-2-|
|--2--2-2-2--2--2-2-2-|-2-2-2-2-(2)-2-2-2-|---------------0-0-|
|
|  ~~~
| +W                    W                   W
|---------------------|-------------------|-------------------|
|---------------------|-------------------|-------------------|
|---------------------|-------------------|-------------------|
|---------------------|-------------------|-------------------|
|-(7)-----------------|-------------------|-------------------|
|---------------------|-------------------|-------------------|


  Gtrs I, II, III
  Q.   E +E  E E E   Q  E E E E E S S   E E E E +Q.   S S
|-0----0-(0)-------|--------------2-2-|-2-2-2-2-(2)-------||
|-0----0-(0)-------|--------------2-2-|-2-2-2-2-(2)-------||
|-1----2-(2)-1-----|-4------------4-4-|-4-4-4-4-(4)---5-5-||
|-2------------4-2-|-4------------4-4-|-4-4-4-4-(4)---5-5-||
|-2----------------|-2--2-2-2-2-2-2-2-|-2-2-2-2-(2)---3-3-||
|-0----------------|------------------|-------------------||


 Pre-Chorus
  C5                                Amadd9
  Gtrs I, III
  W              +W                 W                 +W
  |               |                 |                  |
  /               /                 /                  /

  Gtr II
  H    E E E E    E E E E E E E E   E E E E E E E E    E E E E E E E E
|------3-3-3-3-|--3---------------|-----------------|-------------------|
|------3-3-3-3-|--3---3-3-3-3-3-3-|-0-0-0-0-0-0-0-0-|--0-0-0-0-0-0-0-0--|
|-5----5-5-5-5-|--5-5-5-5-4-4-4-4-|-5-5-5-5-4-4-4-4-|--2-2-2-2-0-0-0-0--|
|-5------------|------------------|-----------------|-------------------|
|-3------------|------------------|-----------------|-------------------|
|--------------|------------------|-----------------|-------------------|


  F5                              E
  W              +H.           +E S S   W                     W
  |               |             | | |
  /               /             / / /

                                      Gtrs I, II, III
  H    E E E E    E  E E E E E  E S S   Q.   E +E  Q   S S    W
|--------------|----------------------|--------------------|------------------||
|--------------|------------------0-0-|-0----0-(0)-0---0-0-|--0---------------||
|------2-2-2-2-|--2--2-2-2-2-2----1-1-|-0----0-(0)-2---1-1-|--1---------------||
|-3----2-2-2-2-|--0--0-0-0--------2-2-|-2----2-(2)-2---2-2-|--2---------------||
|-3------------|-----------3-3--3-2-2-|-2----2-(2)-2---2-2-|--2---------------||
|-1------------|------------------0-0-|-0----0-(0)-0---0-0-|--0---------------||
|
| Gtr IV
| W               W                     H       Q    Q        H.       +E   E
|--------------|----------------------|--------------------|---------------------|
|--------------|----------------------|--------------------|---------------------|
|--------------|----------------------|--------------------|---------------------|
|--------------|----------------------|--------------------|---------------------|
|--------------|----------------------|--------------------|---------------------|
|--------------|----------------------|--------------5s====|=12-------(12)-------|


 Chorus
  Gtr I
  W                   +W
|-------------------|---------------------|
|-------------------|---------------------|
|-------------------|---------------------|
|-2-----------------|-(2)-----------------|
|-0-----------------|-(0)-----------------|
|-------------------|---------------------|
|
| Gtrs II, III
|   PM|
| E E E E  E  E E E    E  E E E  E  E E E
|-0-----0-(0)-----0-|--0------0-(0)---0-0-|
|-3-----2-(2)-----0-|--0------2-(2)---0-0-|
|-2-----2-(2)-----2-|--2------2-(2)---2-2-|
|-2-----2-(2)-----2-|--2------2-(2)-------|
|-0-0-0-0--0--0-0-0-|--0--0-0-0--0--0---0-|
|-------------------|---------------------|


  W                   +W
|-------------------|----------------------|
|-------------------|----------------------|
|-------------------|----------------------|
|-------------------|----------------------|
|-4-----------------|-(4)------------------|
|-2-----------------|-(2)------------------|
|
| E E E E  E  E E E    E  E E E  E  E E E
|-0-----0-(0)---0-0-|--0------0-(0)---0-0--|
|-3-----2-(2)---0-2-|--0------2-(2)---0-0--|
|-2-----2-(2)---2-2-|--2------2-(2)---2-2--|
|-2-----2-(2)---2-2-|--2------2-(2)---2-2--|
|-------------------|----------------------|
|-2-2-2-2--2--2-2-2-|--2--2-2-2--2--2-2-2--|


  H.           +E  E    H.           +E  S S
|--------------------|-----------------------|
|-3------------(3)---|-----------------------|
|-2------------(2)---|-----------------------|
|-0------------(0)---|-------------------2-2-|
|-0------------(0)---|--2------------(2)-0-0-|
|------------------0-|--0------------(0)-----|
|
| E  E E E E E  E  E   +Q.   E +E  Q     E
|------------0--0--0-|-(0)---0-(0)-0---------|
|-3--------3-2--2--0-|-(0)---0-(0)-0---------|
|-2--------2-2-----1-|-(1)---2-(2)-1---------|
|-0--0-0-0-0-0-----2-|-(2)---2-(2)-2---------|
|------------------2-|-(2)---2-(2)-2-----0---|
|------------------0-|-(0)---0-(0)-0---------|
|
| Gtr V
| W                     W
|--------------------|-----------------------|
|--------------------|-----------------------|
|--------------------|-----------------------|
|--------------------|-----------------------|
|--------------------|-----------------------|
|--------------------|-----------------------|


  W                            +W
|---------------------------|------------------------------------||
|---------------------------|------------------------------------||
|---------------------------|------------------------------------||
|-2-------------------------|--(2)-------------------------------||
|-0-------------------------|--(0)-------------------------------||
|---------------------------|------------------------------------||
|
|                 |---3---|
| Q.   E +E  Q    S     S S     W
|-0----0-(0)-0----0-----0-0-|---0--------------------------------||
|-3----2-(2)-0----2-----2-2-|---2--------------------------------||
|-2----2-(2)-2----2-----2-2-|---2--------------------------------||
|-2----2-(2)-2----2-----2-2-|---2--------------------------------||
|-0----0-(0)-0----0-----0-0-|---0--------------------------------||
|---------------------------|------------------------------------||
|
| H       Q    E  E            +E   E  E  +E       +E    E  E  E
|---------------------------|------------------------------------||
|---------------------------|------17-------------------17-------||
|----------------16b18======|=(16)----16r(16)b18==(16)r----14----||
|---------------------------|---------------------------------16-||
|---------------------------|------------------------------------||
|---------------------------|------------------------------------||


 Bridge
  Q  E E E E E E    E  E E E  E  E E S S   Q  E E E E E E   E E E E E E E E
|----------------|-----------------------|----------------|-----------------|
|-3--------------|-----------------------|-9--------------|-----------------|
|-4--------------|--4--4-4-4-(4)-----9-9-|-9--------------|-6-6-6-6-2-2-2-2-|
|-4--------4-----|--4--4-4-4-(4)-----9-9-|-9--------------|-6-6-6-6-2-2-2-2-|
|-2--2-2-2-2-2-2-|--2--2-2-2--2--2-2-7-7-|-7--7-7-7-7-7-7-|-4-4-4-4-0-0-0-0-|
|----------------|-------------------0-0-|-0--0-0-0-0-0-0-|-----------------|
|
| W                +Q.     E  E  E E E     W                E E E E E E Q
|-7--------------|-(7)-------------------|-0--------------|-----------------|
|-7--------------|-(7)---------------7---|-0--------------|-------5-----0---|
|-7--------------|-(7)-------------7-----|-1--------------|-----6-----2-----|
|-9--------------|-(9)-----------9-------|-2--------------|---6-------------|
|-9--------------|-(9)-----7s=9----------|-2--------------|-4-------0-------|
|-7--------------|-(7)-------------------|-0--------------|-----------------|


  Q  E E E E E E    E  E E E  E  E E S S
|----------------|-----------------------|
|----------------|-----------------------|
|-4--------------|--4--4-4-4-(4)-----9-9-|
|-4--------4-----|--4--4-4-4-(4)-----9-9-|
|-2--2-2-2-2-2-2-|--2--2-2-2--2--2-2-7-7-|
|----------------|-------------------0-0-|
|
| W                +Q.     E  E  E E E
|-7--------------|-(7)-------------------|
|-7--------------|-(7)---------------7---|
|-7--------------|-(7)-------------7-----|
|-9--------------|-(9)-----------9-------|
|-9--------------|-(9)-----7s=9----------|
|-7--------------|-(7)-------------------|
|
| W                 W
|----------------|-----------------------|
|----------------|-----------------------|
|----------------|-----------------------|
|----------------|-----------------------|
|----------------|-----------------------|
|----------------|-----------------------|


  Q   E E E E  E   E          E  E  E  E  E E E E
|--------------------------|--------------------------||
|-9------------------------|--------------------------||
|-9------------------------|--------------------------||
|-9------------------------|--------------------------||
|-7---7-7-7-7--7---7-------|--7--7--7--7--7-7-7-7-----||
|-0---0-0-0-0--0---0-------|--0--0--0--0--0-0-0-0-----||
|
|                  |--3--|
| H.          +E   S  S  S    E  E  E  E  E E Q
|-0-----------(0)----------|--------------------------||
|-0-----------(0)-10-10-10-|-10-10-10-10-10-9---------||
|-1-----------(1)--9--9--9-|--9--9--9--9--9-9---------||
|-2-----------(2)--9--9--9-|--9--9--9--9--9-9---------||
|-2-----------(2)--7--7--7-|--7--7--7--7--7-7---------||
|-0-----------(0)--0--0--0-|--0--0--0--0--0-0---------||
|
|                          Gtr IV
|                                               |-3-|
| W                           H           Q   E S S S
|--------------------------|--------------------------||
|--------------------------|--------------------8-8-8-||
|--------------------------|--------------------------||
|--------------------------|--------------------------||
|--------------------------|--------------------------||
|--------------------------|--------------------------||


 Guitar Solo
  Gtr IV
                                           |-3-| |----6----|
  E E E E +E  Q    a  E      +E  E E E +E  S S S S S S S S S
|-------------------------|----------------------------------|
|-8p7s5-5-(5)s8----8s10---|-(10)s8s7s5-(5)-------------------|
|-------------------------|----------------------------5h7h9-|
|-------------------------|----------------------5h7h9-------|
|-------------------------|----------------5h7h9-------------|
|-------------------------|----------------------------------|
|
| Gtrs II, III
| E E E E +E  Q.              E  E E E +H
|---3---------------------|------3-2-0-(0)-------------------|
|-----3-------3-----------|---3------------------------------|
|-------5-(5)-------------|---2------------------------------|
|-------------------------|---0------------------------------|
|-3-----------------------|----------------------------------|
|-------------------------|----------------------------------|
|
| Gtr I
| PM-------------|            PM---|
| E E E E  E  E  E    S S     E  E E E +E  E     E     E
|-------------------------|----------------------------------|
|-------------------------|----------------------------------|
|-------------------------|----------------------------------|
|-------------------------|----------7-(7)-------------------|
|-3-3-3-3--3--3--3----3s5-|---5--5-5-5-(5)-5-----5-----5-----|
|-------------------------|----------------------------------|


  ~~              ~~~~~~~~~
                                           |---3---|            |-----3------|
  Q  E E +E  E a  Q    +W                  Q  Q    Q    a      +Q      Q     Q
|--------------------|------------------|--------------------------------------|
|-7h=8-7-(7)---------|------------------|----19---20---20b22==(20)r---15----17-|
|------------7-7s=9--|-(9)--------------|--------------------------------------|
|--------------------|------------------|--------------------------------------|
|--------------------|------------------|--------------------------------------|
|--------------------|------------------|--------------------------------------|
|
| Q  E E +E  E    Q    +H     +E  E E E    Q    E    E         +E   E     Q
|--------------------|------------------|--------------------------------------|
|--------------------|------------------|--------------------------------------|
|----0-----------^0--|-(0)----(0)-------|-------0------------------------^0----|
|-4----4-(4)-----^2--|-(2)----(2)-----2-|-^4---------4---------(4)-------^2----|
|-5----------5---^3--|-(3)----(3)---3---|-^5------------------------5----^3----|
|-5--------------^3--|-(3)----(3)-3-----|-^5-----------------------------^3----|


    ~~~~
                                 |--3--|  |---3----|  |--3--|
   +W                  E.  S  E  S  S  S  E   E    E  E  E  E
|-------------------|-----12s17p15h17p15p14-------------------|
|-(17)--------------|------------------------15---------------|
|-------------------|-----------------------------14s12s11----|
|-------------------|--------------------------------------12s|
|-------------------|-----------------------------------------|
|-------------------|-----------------------------------------|
|
|  +H     +E  E E E    Q      E  E       +E     E     Q
|-------------------|-----------------------------------------|
|-------------------|-----------------------------------------|
|--(0)----(0)-------|---------0----------------------^0-------|
|--(2)----(2)-----2-|-^4---------4-------(4)---------^2-------|
|--(3)----(3)---3---|-^5------------------------5----^3-------|
|--(3)----(3)-3-----|-^5-----------------------------^3-------|


                        ~~~~~~~
      |-3-|
   E  S S S E. S  S  S  E  +Q
|---------------------------------|
|---------------------------------|
|---------------------------------|
|--5h=7p5p4h5--4h=5h=7s12-(12)----|
|---------------------------------|
|---------------------------------|
|
| +H             +E     E   E  E
|---------------------------------|
|---------------------------------|
|-(0)------------(0)--------------|
|-(2)------------(2)-----------2--|
|-(3)------------(3)--------3-----|
|-(3)------------(3)----3---------|


                  ~~~~~~~       ~~~~~~~~~~~~~~~~~~~~~~~~
        |-3-|
   +E   S S S  E  E  +E   E  a  Q     +W            +W
|----------------------------------|-------------|-------------------------|
|----------------------------------|-------------|-------------------------|
|-------------12-11-(11)----12s14--|-(14)--------|-(14)--------------------|
|-(12)-----x------------12--------|-------------|--------------------------|
|---------x------------------------|-------------|-------------------------|
|-------x--------------------------|-------------|-------------------------|
|
|                                                Gtr II
|                                                                 PM--|
|   Q          E  E  +E   E     Q     +W             E  a E E E E E E E
|------------------------------^0--|--(0)--------|----------------------||
|------------------------------^0--|--(0)--------|----------------------||
|--------------0---------------^2--|--(2)--------|------7s9p7p6---------||
|---4-------------4--(4)-------^2--|--(2)--------|--------------7-------||
|---5---------------------5----^0--|--(0)--------|----------------7-5-4-||
|---5------------------------------|-------------|----------------------||


  Gtr II
  E E E E E E E E   E E E E E E E E   E E E E E E E E   E E E E E E E E
|-----5-----5-----|---5-------5-----|-----5-----5-----|-----5-----5------|
|---5-----5---5---|-5---5---5-------|---5-----5---5---|---5-----5--------|
|-----------------|-----------------|-----------------|------------------|
|-7-----6-------4-|-------6-----4-6-|-7-----6-------4-|-7-----6-----4-6--|
|-----------------|-----------------|-----------------|------------------|
|-----------------|-----------------|-----------------|------------------|


                                   |--3--|
  E E E E E E E E   E E E E E E E  S  S  S
|-----5-----5-----|-----4---5p4------------|
|---5-----5-------|---5---5-------15-15-15-|
|-------7---------|---------------14-14-14-|
|-7-----------4-6-|-4-------------14-14-14-|
|-----------------|------------------------|
|-----------------|------------------------|


                                    D.S. al Coda
                      |--3---|
   Q   E  E  +E   E  +E   E  E    H.      S S E
|---------0--(0)--0--(0)-------|-----------------||
|-15--14-14-(14)-12-(12)-14-14-|-14-------x-x----||
|-14--14-14-(14)-14-(14)-14-14-|-14-------x-x----||
|-14--14-14-(14)-14-(14)-14-14-|-14-------x-x----||
|------------------------------|-----------------||
|------------------------------|-----------------||


 Out-Chorus
  &
  Gtr I
  W                   +W                    W
|-------------------|---------------------|-------------------|
|-------------------|---------------------|-------------------|
|-------------------|---------------------|-------------------|
|-2-----------------|-(2)-----------------|-------------------|
|-0-----------------|-(0)-----------------|-4-----------------|
|-------------------|---------------------|-2-----------------|
|
| Gtrs II, III
|   PM|
| E E E E  E  E E E    E  E E E  E  E E E   E E E E  E  E E E
|-0-----0-(0)-----0-|--0------0-(0)---0-0-|-0-----0-(0)---0-0-|
|-3-----2-(2)-----0-|--0------2-(2)---0-0-|-3-----2-(2)---0-2-|
|-2-----2-(2)-----2-|--2------2-(2)---2-2-|-2-----2-(2)---2-2-|
|-2-----2-(2)-----2-|--2------2-(2)-------|-2-----2-(2)---2-2-|
|-0-0-0-0--0--0-0-0-|--0--0-0-0--0--0---0-|-------------------|
|-------------------|---------------------|-2-2-2-2--2--2-2-2-|


  +W                    H.           +E  E    W
|---------------------|--------------------|------------------|
|---------------------|-3------------(3)---|------------------|
|---------------------|-2------------(2)---|------------------|
|---------------------|-0------------(0)---|------------------|
|-(4)-----------------|--------------------|--2---------------|
|-(2)-----------------|------------------0-|--0---------------|
|
|  E  E E E  E  E E E   E  E E E E E  E  E   +Q.   E +E  Q  E
|--0------0-(0)---0-0-|------------0--0--0-|-(0)---0-(0)-0----|
|--0------2-(2)---0-0-|-3--------3-2--2--0-|-(0)---0-(0)-0----|
|--2------2-(2)---2-2-|-2--------2-2-----1-|-(1)---2-(2)-1----|
|--2------2-(2)---2-2-|-0--0-0-0-0-0-----2-|-(2)---2-(2)-2----|
|---------------------|------------------2-|-(2)---2-(2)-2--0-|
|--2--2-2-2--2--2-2-2-|------------------0-|-(0)---0-(0)-0----|


                         PM|                 PM------------|
  Q.     E +Q.     E   E E E E +Q    E E   E E E E  E  E E E
|--------------------|-------------------|-------------------|
|--------------------|-------------------|-------------------|
|--------------------|-------------------|-------------------|
|-2------2-(2)-------|-2-----2-(2)---2-2-|-------------------|
|-0------0-(0)-----0-|-0-0-0-0-(0)---0-0-|-4-----------------|
|--------------------|-------------------|-2-2-2-2--2--2-2-2-|
|
|    PM|
| E  E E E  E  E E E   E E E E  E  E E E   E E E E  E  E E E
|-0------0-(0)-----0-|-0-----0-(0)---0-0-|-0-----0-(0)---0-0-|
|-3------2-(2)-----0-|-0-----2-(2)---0-0-|-3-----2-(2)---0-2-|
|-2------2-(2)-----2-|-2-----2-(2)---2-2-|-2-----2-(2)---2-2-|
|-2------2-(2)-----2-|-2-----2-(2)-------|-2-----2-(2)---2-2-|
|-0--0-0-0--0--0-0-0-|-0-0-0-0--0--0---0-|-------------------|
|--------------------|-------------------|-2-2-2-2--2--2-2-2-|


  PM----|                 PM|
  E E E E  E  E E E   Q   E E E E E E
|-------------------|---------------0-|
|-------------------|-3-------3-2---0-|
|-------------------|-2-------2-2---1-|
|-------------------|-0---0-0-0-0---2-|
|-4---------------4-|-------------0-2-|
|-2-2-2-2--2--2-2---|---------------0-|
|
| E E E E  E  E E E   E E E E E E E E
|-0-----0-(0)---0-0-|-----------0-0-0-|
|-0-----2-(2)---0-0-|-3-------3-2-2-0-|
|-2-----2-(2)---2-2-|-2-------2-2---1-|
|-2-----2-(2)---2-2-|-0-0-0-0-0-0---2-|
|-------------------|---------------2-|
|-2-2-2-2--2--2-2-2-|---------------0-|


                     Gtrs I, II, III
  +Q.   E +E  Q  S S   Q  E E +E  Q  E   +W
|-(0)---0-(0)-0--0-0-|-0--0-0-(0)-0--0-|-(0)----*|
|-(0)---0-(0)-0--3-3-|-3--2-2-(2)-0--2-|-(2)----*|
|-(1)---2-(2)-1--2-2-|-2--2-2-(2)-2--2-|-(2)----*|
|-(2)---2-(2)-2--2-2-|-2--2-2-(2)-2--2-|-(2)----*|
|-(2)---2-(2)-2--0-0-|-0--0-0-(0)-0--0-|-(0)----*|
|-(0)---0-(0)-0------|-----------------|--------*|
|
| +Q.   E +E  Q  E     W                  W
|-(0)---0-(0)-0------|-----------------|--------*|
|-(0)---0-(0)-0------|-----------------|--------*|
|-(1)---2-(2)-1------|-----------------|--------*|
|-(2)---2-(2)-2------|-----------------|--------*|
|-(2)---2-(2)-2--0---|-----------------|--------*|
|-(0)---0-(0)-0------|-----------------|--------*|

19.UNCHAINED

(INTRO/CHORUS)
E-----------------------------------------------------------------------|
B---7---8---------------3--4-3------5--6-5-------7--8-------------------|
G---7---7---------------3--3-3------5--5-5-------7--7-------------------|
D---7---7---------------3--3-3------5--5-5-------7--7-------------------|
A-----------------------------------------------------------------------|
E-----------0-0-0-0-0---------0-----------0----------0-0-0-0------------|

E------------------------------------------------------------|
B--10--11-10----10--8----------------------------------------|
G--10--10-10----10--9----------------------------------------|
D--10--------10----10----------------------------------------|
A--8---------------------------------------------------------|
E-----------------------0-0----------------------------------|

(1st,2nd VERSES)
E----------------------------------------------------------------------|
B----------------------------------------------------------------------|
G-----------------------------3--------5-------------------------------|
D---------------------------3-------------5----------------------------|
A--3~~~ 5----3*-------/5~~~-------5/7---------------3*~~~--------------|
E---------0-----0-0---------------------------0-0----------------------|
          pm    pm    sl.         sl.          pm


E----------------------------------------------------------------|
B------------------------10-10-----8-----------------------------|
G-------------------------------------9--------------------------|
D------------------5/10--------10-------10-----------------------|
A---5-----3------------------------------------------------------|
E------0-----0-0-------------------------------------------------|
              pm

(PRECHORUS)
E----------------------------------------------------------------------|
B----------------------------------------------------------------------|
G--7-7-7-----7-7-7\5/7------------7-7-----7-7-7\5/7--------------------|
D--5-5-5-----5-5-5\3/5------------5-5-----5-5-5\3/5--------------------|
A---------5-------------5--3-x-x-------5-------------3---/7------------|
E---------5-------------5--3-x-x-------5-------------3---/7------------|

E---------------------------------------------------------------------|
B---------------------------------------------------------------------|
G--9-9-9-9-9---------9\7/9---------9-9-9-9----------------------------|
D--7-7-7-7-7---------7\5/7---------7-7-7-7----------------------------|
A-------------7-7-7---------7--5------------5-7-6-5-3-----------------|
E-------------7-7-7---------7--5------------5-7-6-5-3-----------------|

20.PANAMA

Intro:

 E    Esu4   B	    E	   E  B   D	Dsu4  a
--------------------------------|--------------------------|
-9----10-----7------9------10-7-|-7-----8-----7------------|
-9-----9-----8------9-------9-8-|-7-----7-----8------------|
-9-----9-----9------9-------9-9-|-7-----7-----9-----7\\\---|
-7-----7------------7-------7---|-5-----5-----------O\\\---|
---O-O---O-O---O-O----O-O-------|---O-O---O-O--------------|
   PM (all open E's)				    DB	     (Dive Bomb -
							 Hit the Twang Stick)
 E    Esu4   B	    E      E  B   D     Dsus4 a
--------------------------------|-------------------------|
-9----10-----7------9------10-7-|-7-----8-----7-----------|
-9-----9-----8------9-------9-8-|-7-----7-----8-----------|
-9-----9-----9------9-------9-9-|-7-----7-----9-----####--|
-7-----7------------7-------7---|-5-----5-----------####--|
---O-O---O-O---O-O----O-O-------|---O-O---O-O-------------|
						    PS	     (Pick-Slide)
Pre-Verse:
  C#min		     B/Bsu4   a
|-0----------------------------------------------|
|-5------------------4-5-4--4\2--2-2-------------|
|-6------------------4-4-4--4\2--2-2-------------|
|-6------------------4-4-4--4\2--2-2--4^h^4~~~~--|
|-4------4-4-4-4-4-4-----------------------------|
|------------------------------------------------|
  $				      AH    	    ($ = strum & let ring)

 C#min           B/Bsu4   A          B   [---------Riff #1--------------------|
-4---------------------------------------------O-----O-----5----5-----5-------|
-5--4---4-5--------4-5-4--4\2--2-2---------------4-----4-----4----4-----4-----|
-6----6------------4-4-4--4\2--2-2---------4-------4-----4-----4----4-----4---|
-6-----------------4-4-4--4\2--2-2---------4----------------------------------|
-4-----------------------------------O-O-O-2----------------------------------|
------------------------------------------------------------------------------|
                                   [---Harmonics------------------------------|

Chorus:
  E   a  D  a  D a G        E   a  D  a  D a G        E   a  D  a  D a G
|-------------------------|------------------------|------------------------|
|--------3-X---3----------|--------3-X---3---------|--------3-X---3---------|
|-----2--2-X-2-2-2--------|-----2--2-X-2-2-2-------|-----2--2-X-2-2-2-------|
|-2---2--O-X-2-O-2--------|-2---2--O-X-2-O-2-------|-2---2--O-X-2-O-2-------|
|-2---O----X-O---O--------|-2---O----X-O---O-------|-2---O----X-O---O-------|
|-O-O--------------3/5\3~~|-O-O--------------3/5\3~|-O-O--------------3/5\3~|
 (Uh!)		   (Hey yeah!....)		   (Uh Huh!)


-------------------------|
--------3-X---3----------|
-----2--2-X-2-2-2--------|
-2---2--O-X-2-O-2--------|
-2---O----X-O---O--------|
-O-O--------------3/5\3~~|

Verse1:
  D  E                          E a D                   D   E		   Asu2
|-------------------------------------------------------------------------O---|
|-3-------------------------------5---------------------------------------O---|
|-2-----------------------------9-6-7------------------7-7-9----------O-O-2-\/|
|-O---2-------------------------9-7-7------------------7-7-9----------O-O-2-\/|
|-----2-------------------------7---5------------------5-5-7--------------O---|
|-----O------O-O-O-O-O--------------------(O)-(O)-(O)--------(O)-(O)----------|
 Jump Back    What's that sound       Here she comes.....      Hot shoe..   $ PS


Bridge:
  F#			   C#min (arpegiate chord)
|-O----------------------|-O---------------|---------------------------|------|
|-O----O-----O-----O-----|-5---------------|---------------------------|------|
|-3------3-----3-----3---|-6---------------|-\-------------------------|-riff-|
|-4--------4-----4-----4-|-6---------------|-\-------------------------|--#1--|
|-4----------------------|-4---------------|----5-------3------------2-|------|
|-2----------------------|-----------------|------6-5~----4-5~--2~-O---|------|
  $(Dont you know she...)  $(You lose a....)


Chorus

Verse 2 (basically the same as the first)

Solo:

---------------|-------7-----7-7--------------|-----------------|-------------|
---------------|-----7-------7-7--------------|---H-T-P--H------|-------------|
---------------|-9^F-----9^F------9^F^9^F\~/--|-6-9-11-6-9- %5x-|-9^F^9^F~~~~~|
---------------|------------------------------|-----------------|hold this----|
-3~-O----O-----|------------------------------|-----------------|bend for next|
------3~---3~~-|------------------------------|-----------------|-part -------|
..ah oh)				WB = Whammey Bar     % = repeat
					^F = Bend Full Step  H = Hamer-On
					T = Tap		     P = Pull-Off


------------------------------------------------------------------------------|
---------T----P----T----P----T----P----T----P----T----P-----------------------|
-(9^F~)--14-(9^F)--12-(9^F)--14-(9^F)--16-(9^F)--14-(9^f^9~~)--7-7^WB--7-9-7~~|
------------------------------------------------------------------------------|
------------------------------------------------------------------------------|
------------------------------------------------------------------------------|
				(release 9th bend here) ^  (bend up ^
							    with whammey bar)

-------------------------------|
-------------------------------|
-7^F-7-----7^F~----------------|
-------9-7------9-8-7----------|
----------------------9-8-7----|
----------------------------10-|

|------------------------------------------------------------------|--|
|------------------------------------------------------------------|--|
|------------------------------------------------------------------|--|
|---H--P-----------------H--P------------------H--P----------------|--|
|-/9-10-9----7^F^7-----/9-10-9----9~--(9~)---/9-10-9---9~----------|--|
|---------10--------7~---------10-----10-------------10---10-10/12-|--|


--------------O-------|
--------------O-------|
--------------2-------|
---H--P-------3-------|
-/9-10-9------3-------|
---------10---1-------|
	      $ (Arpegiate Chord)

the ending

-----------------0--------------|------------------------|
----------------------0---------|------------------------|
------------2--------------2----|------------------------|
-------0------------------------|------------------------|
--------------------------------|--------9----10--9------|
--1-----------------------------|--------------------10--|

--------------------------|---------------------------|
--------------------------|---------------------------|
-----------------------7--|---------------------------|
-----9--------9--------7--|-----9---------------------|
-----7--------7-----------|-----7-----9----10--9------|
--0-----x--0-----0--0-----|--0-----x--------------10--|

-------------------------|---------------------------|-----------------------|
-------------------------|---------------------------|-----------------------|
-------------------------|---------------------------|-----------------------|
-------------------------|---------------------------|-----------------------|
-----9------10--------9--|----10-----9----10h-9------|--9h-7--5~-------9-7~--|
--8--8------8---8--8-----|--------8--------------10--|-----------------------|

------------------------|--------------------------|--------------------------|
------------------------|--------------------------|--------------------------|
------------------------|--------------------------|--------------------------|
------------------------|--------------------------|--------------------------|
--------9----10--9------|-----9------10-----10--9--|----10------9--10--9------|
--------------------10--|--8--8------8---8--8------|----8-----------------10--|

--------------------------|---------------------------|
--------------------------|---------------------------|
-----9--------------------|--------9------------------|
-----9-----------------9--|--------9------------------|
-----7-----------------7--|--------7--9----10h-9------|
--0-----0--0--0--0--0--0--|--0--0-----------------10--|

-------------------------|--------------------|--------------------------|
-------------------------|--------------------|--------------------------|
-------------------------|--------------------|-----------------------2--|
-------------------------|--------------------|-----------------------3--|
-----9------10--------9--|------10------------|--2--2--2--2--2--2--2--3--|
--8--8------8---8--8--8--|------8-------------|--0--0--0--0--0--0--0--1--|

--------------------------|--------------------------|
--------------------------|-----------------------3--|
-----------------------2--|-----------------------0--|
-----------------------0--|-----------------------0--|
--3--3--3--3--3--3--3--0--|-----------------------x--|
--1--1--1--1--1--1--1--2--|--2--2--2--2--2--2--2--3--|

--------------------------|--------------------------|-------------------------|
--------------------------|--------------------------|-------------------------|
--------------------------|-----------------------2--|----------------------0--|
--------------------------|-----------------------2--|-------------2--2--2--x--|
-----------------------7--|--7--7--7--7--7--7--7--0--|----0--0--0--0--0--0--1--|
--3--3--3--3--3--3--3--4--|--4--4--4--4--4--4--4-----|-------------------------|

----------------------|------------------------|-------------------|
----------------------|------------------------|-------------------|
-------------------4--|------4--4--4--4--4--4--|-------------------|
-------------------4--|------4--4--4--4--4--4--|-------------------|
--------1--1-------2--|------2--2--2--2--2--2--|----------------2--|
--------------0-------|------------------------|----------------0--|

-------------------------|-------------------------|--------------------------|
-------------3-----------|-----3-------------------|--------------3-----------|
-------2-----2--------2--|-----2--2----------------|--------2-----2--------2--|
-------2-----0--0--0--2--|-----0--2-----7/-5-------|--------2-----0--0--0--2--|
-------0--0-----------0--|--0-----0-----7/-5----2--|--------0--0-----------0--|
----0--------------------|-----------0----------0--|--0--0--------------------|

-------------------------|--------------------------|-------------------------|
-----3-------------------|--------------3-----------|-----3-------------------|
-----2--2----------------|--------2-----2--------2--|-----2--2----------------|
-----0--2-----7/-5-------|--------2-----0--0--0--2--|-----0--2-----7/-5-------|
--0-----0-----7/-5----2--|--------0--0-----------0--|--0-----0-----7/-5----2--|
-----------0----------0--|--0--0--------------------|-----------0----------0--|

--------------------------|-------------------------|--------------------------|
--------------3-----------|-----3-------------------|--------------3-----------|
--------2-----2--------2--|-----2--2----------------|--------2-----2--------2--|
--------2-----0--0--0--2--|-----0--2-----7/-5-------|--------2-----0--0--0--2--|
--------0--0-----------0--|--0-----0-----7/-5----2--|--------0--0-----------0--|
--0--0--------------------|-----------0----------0--|--0--0--------------------|

-------------------------|--------------------------|-------------------------|
-----3-------------------|--------------3-----------|-----3-------------------|
-----2--2----------------|--------2-----2--------2--|-----2--2----------------|
-----0--2-----7/-5-------|--------2-----0--0--0--2--|-----0--2-----7/-5-------|
--0-----0-----7/-5----2--|--------0--0-----------0--|--0-----0-----7/-5----2--|
-----------0----------0--|--0--0--------------------|-----------0----------0--|

------------------||
------------------||
------------------||
------------------||
------------------||
------------------||

21.BEST OF BOTH WORLDS

Intro
 Q=120
                     D/F#G5   D/F#  G5  D/F#G  a         AsusG5
 4/4
  Gtr I
  H    E. S  Q    E  E E E Q  E E   E E E E Q  E E   +E  E E E Q  E   E
|---------------|-----------------|----------------|-----0-0------------|
|---------------|----3-3-3-3--3---|-3---3---0--2-2-|-(2)-0-0-3-3--------|
|---------------|----2-2-0-0--2---|-0---2---0--2-2-|-(2)-2-2-0-0--------|
|---------------|----0-0-0-0--0---|-0---0---0--2-2-|-(2)-2-2-0-0--------|
|---------------|-----------------|------------0-0-|-(0)----------------|
|---------9s17s=|=9\-2-2-3-3--2---|-3---2---3------|---------3-3--2b3p0-|


      A5                   D/F#G5   D/F#  G5  D/F#G  a         AsuG5
  E   Q  E +Q.   a  E   E  E E E Q  E E   E E E E Q  E E   +E  Q  E Q  E   E
|---------------------|-----------------|----------------|-------------------|
|---------------------|----3-3-3-3--3---|-3---3---0--2-2-|-(2)-0--3-3--------|
|--------2-(2)--------|----2-2-0-0--2---|-0---2---0--2-2-|-(2)-2--0-0--------|
|-----2--2-(2)--------|----0-0-0-0--0---|-0---0---0--2-2-|-(2)-2--0-0--------|
|-----0--0-(0)--------|-----------------|------------0-0-|-(0)---------------|
|-3b4------------5s14s|=5\-2-2-3-3--2---|-3---2---3------|--------3-3--2b3p0-|


      A5              a   G     D/F#  G   D/F#G   D/A#        G      D/F#
  E   Q  E +H       E E E E E E E E   E E E E E E E E   E E E E +Q   E E
|-----------------|-----------------|-----------------|-------------------|
|-----------------|---2---3-3---3---|-3---3---3---3-2-|---2---3-(3)--3----|
|--------2-(2)----|---2---4-4---2---|-4---2---4---2-2-|---2---4-(4)--2----|
|-----2--2-(2)----|---2---5-5---4---|-5---4---5---4-2-|---2---5-(5)--4----|
|-----0--0-(0)----|-----------------|-----------------|-------------------|
|-3b4-------------|-----------------|-----------------|-------------------|


  G a   Em             a   G     D/F#  G   D/F#G   D/A#    a   G     D/F#
                       PMPMPM  PMPMPM    PM  PM  PM      PMPMPMPMPMPMPMPM
  E E E E +Q.   E    E E E E E E E E   E E E E E E E E   E E E E E E E E
|------------------|-----------------|-----------------|------------------|
|-3-2---0-(0)------|---2---3-3---3---|-3---3---3---3-2-|---2---3-3-3-3----|
|-4-2---0-(0)------|---2---4-4---2---|-4---2---4---2-2-|---2---4-4-4-2----|
|-5-2---2-(2)------|---2---5-5---4---|-5---4---5---4-2-|---2---5-5-5-4----|
|------------------|---0-0-0---0-0-0-|---0---0---0-----|-0-0-0-0-0-0-0-0--|
|---------------8\-|-----------------|-----------------|------------------|
                     E E E E E E E E   E E E E E E Q     E E E E E E E E


  G/A   A7sus2            D/F#G5   D/F#  G5  D/F#G  a
  E E E  E +Q.     E   E  E E E Q  E E   E E E E Q  E E
|-------^0-(0)-------|-----------------|----------------|
|-3-2---^0-(0)-------|----3-3-3-3--3---|-3---3---0--2-2-|
|-4-2---^0-(0)-------|----2-2-0-0--2---|-0---2---0--2-2-|
|-5-2---^2-(2)-------|----0-0-0-0--0---|-0---0---0--2-2-|
|-0-0---^0-(0)-------|-----------------|------------0-0-|
|----------------/14s|=5\-2-2-3-3--2---|-3---2---3------|
                     | Rhy Fig 1

      D/F#G5               A5                       D/F#G5   D/F#
  +E  E E E Q  E   E   E   Q  E +E  E   +E    E   E E E E Q  E E
|--------------------|--------------------------|----------------|
|-(2)-3-3-3-3--------|--------------------------|---3-3-3-3--3---|
|-(2)-2-2-0-0--------|--------2-(2)-----------2-|---2-2-0-0--2---|
|-(2)-0-0-0-0--------|-----2--2-(2)-----------2-|---0-0-0-0--0---|
|-(0)----------------|-----0--0-(0)-----------0-|----------------|
|-----2-2-3-3--2b3p0-|-3b4----------3b5r(3)b5---|---2-2-3-3--2---|


  G5  D/F#G  a         D/F#G5  N.C.D5                N.C.A5
  E E E E Q  E E   +E  E E E E E E E   +E  E E E +E  E E E
|----------------|-------------------|---------------------||
|-3---3---0--2-2-|-(2)-3-3-3-3-----3-|-(3)---3-3-(3)-------|| end
|-0---2---0--2-2-|-(2)-2-2-0-0-----2-|-(2)---2-2-(2)-----2-|| Rhy Fig 1
|-0---0---0--2-2-|-(2)-0-0-0-0-----0-|-(0)---0-0-(0)-----2-||
|------------0-0-|-(0)---------0-3---|-----3---------3-0-0-||
|-3---2---3------|-----2-2-3-3-------|---------------------||


 1st Verse
  a          G          D/F#A                           D7sus4
  E  E E E E Q.     +E  E E E E  E E E   E  E E E E E E E
|-----------------|--------------------|------------------|
|----------2-3----|-(3)-3---2------2---|------------------|
|--------2---4----|-(4)-2---2--------2-|------2---------5-|
|------2-----5----|-(5)-4---2----------|--------2-------5-|
|---/4------------|-------------/4-----|---/4-----4p0---5-|
|-----------------|--------------------|------------------|
Rhy Fig 2

           D          A5             G          D/F#A
  E. S +E  E E. S +E  E   E  E E E E Q.     +E  E E E E  E E E
|-----------------------|-----------------|--------------------|
|-----------------------|----------2-3----|-(3)-3---2------2---| end
|-5--5-(5)------------2-|--------2---4----|-(4)-2---2--------2-| Rhy Fig 2
|-5--5-(5)-4-4--4-(4)-2-|------2-----5----|-(5)-4---2----------|
|-5--5-(5)-5-5--5-(5)-0-|---/4------------|-------------/4-----|
|-----------------------|-----------------|--------------------|


                 D7sus4    D                   D/F#G5   D/F#
  E  E E E E E E E   E E E E +Q     E   E   E  E E E Q  E E
|------------------|----------------------|-----------------|
|------------------|----------------------|----3-3-3-3--3---|
|------2---------5-|-5-5------------------|----2-2-0-0--2---|
|--------2-------5-|-5-5---4-(4)----------|----0-0-0-0--0---|
|---/4-----4p0---5-|-5-5---5-(5)----------|-----------------|
|------------------|--------------/14-/15s|=5\-2-2-3-3--2---|


  G5  D/F#G5 A5        D/F#  G5             A5
  E E E E Q  E E   +E  E E E Q  E   E   E   Q  E +Q.   E
|----------------|--------------------|------------------||
|-3---3---3------|-----3-3-3-3--------|------------------||
|-0---2---0--2-2-|-(2)-2-2-0-0--------|--------2-(2)-----||
|-0---0---0--2-2-|-(2)-0-0-0-0--------|-----2--2-(2)-----||
|------------0-0-|-(0)----------------|-----0--0-(0)-----||
|-3---2---3------|-----2-2-3-3--2b3p0-|-3b4--------------||


 2nd Verse - Rhy Fig 3

                                       Pre-Chorus
                                           PM--------|
  E  E E E E E E E   +E  E Q  Q  E E     E E E E E E   E  E
|------------------|-----------------||---------------------|
|------------------|-----------------||---------------------|
|------2---------5-|-(5)-5-4--5--4-3-||-------------------9-|
|--------2-------5-|-(5)-5-5--5--5-3-||--------5-5-5------9-|
|---/4-----4p0---5-|-(5)-5-5--5--5-3-||-/8-8-8-8-8-7-/12-12-|
|------------------|-----------------||---------------------|


     N.C.
                                      \0.5/
         |-3--| |---3----|
   E  E  E  E E E   E    E    +E     +E
|----------------------<12>-(<12>)-(<12>)---|
|-----------------<12>----------------------|
|--9------------9---------------------------|
|--9----------9-----------------------------|
|-12-11----12-------------------------------|
|-------12----------------------------------|


         Bsus4   B      Dsus4      D        Fmaj7
    +E   E E E E E +E    S  S    E  E  +E    E  +Q    Q
|-(<12>)-7-7-7-7--------10-10-|-10-----------0--(0)-------||
|--------7-7-7-7-7-(7)/-10-10-|-10-10-(10)/-13-(13)-------||
|--------9-9-9-9-8-(8)/-12-12-|-12-11-(11)/-14-(14)-------||
|--------9-9-9-9-9-(9)/-12-12-|-12-12-(12)/-15-(15)-------||
|-----------------------------|---------------------------||
|-----------------------------|----------------------17\--||


 Chorus - Rhy Fig 1

 3rd Verse - rhy Fig 2

                                     Pre-Chorus
                Gsus4   G  GsusG F         FsusFsC/E   Esus4
                                         PM----|
  E E E E E E E E   E E Q  E E E E     E E E E E E   E  E
|-----------------|----------------||---------------------|
|-----------------|----------------||---------------------|
|-----2---------5-|-5-5-4--5-5-4-2-||----------5--------9-|
|-------2-------5-|-5-5-5--5-5-5-3-||------8---5-5------9-|
|--/4-----4p0---5-|-5-5-5--5-5-5-3-||-/8-8-8-8-8-7-/12-12-|
|-----------------|----------------||---------------------|


     E                              Bsus4   B     G/D
   E  E  E  S  S  +E   E E +E     E E E E E E   E  S  S
|-------------------------------|---7-7-7-7-------------|
|-------------------------------|---7-7-7-7-7-----12-12-|
|--9--9-------------------------|---9-9-9-9-8-----12-12-|
|--9--9-------------------------|---9-9-9-9-9-/12-12-12-|
|-12-11----11h12-(12)-11-7-(7)\-|-----------------------|
|-------12-------------7-7------|-0---------------------|


     D       Fmaj7      G  G# a
   E  E  +S   S  E  +E   E  E  E
|-------------0--0--(0)----------||
|-12-10-(10)-13-13-(13)-15-16-17-||
|-12-11-(11)-14-14-(14)-16-17-18-||
|-12-12-(12)-15-15-(15)-17-18-19-||
|--------------------------------||
|--------------------------------||


 Chorus
        D/F#G5   D/F#  G5  D/F#G5 a         D/F#G5
   +E   E E E Q  E E   E E E E Q  E E   +E  E E E Q  E   E
|--------------------|----------------|--------------------|
|-(17)\-3-3-3-3--3---|-3---3---3--2-2-|-(2)-3-3-3-3--------|
|-(18)\-2-2-0-0--2---|-0---2---0--2-2-|-(2)-2-2-0-0--------|
|-(19)\-0-0-0-0--0---|-0---0---0--2-2-|-(2)-0-0-0-0--------|
|--------------------|------------0-0-|-(0)----------------|
|-------2-2-3-3--2---|-3---2---3------|-----2-2-3-3--2b3p0-|


      A5                    D/F#G5   D/F#  G5  D/F#G  a
  E   Q  E +E   E E E   +E  E E E Q  E E   E E E E Q  E E
|---------------------|------------------|----------------|
|--------------/7s6-5-|-(5)-3-3-3-3--3---|-3---3---0--2-2-|
|-----2--2-(2)--------|-----2-2-0-0--2---|-0---2---0--2-2-|
|-----2--2-(2)-/7s6-5-|-(5)-0-0-0-0--0---|-0---0---0--2-2-|
|-----0--0-(0)--------|------------------|------------0-0-|
|-3b4-----------------|-----2-3-3-3--2---|-3---2---3------|


      D/F#G5      D5
  +E  E E E E E E E   +E  E E E +E  E E E
|-------------------|-------------------------||
|-(2)-3-3-3-3-----3-|-(3)---3-3-(3)-----------||
|-(2)-2-2-0-0-----2-|-(2)---2-2-(2)-----9b11==||
|-(2)-0-0-0-0-----0-|-(0)---0-0-(0)-----------||
|-(0)---------0-3---|-----3---------3-0-------||
|-----2-2-3-3-------|-------------------------||


 Guitar Solo
  (B5)
       T                  ~~
  +E   E  +S   S     +E   Q   a  E  E
|--------------------------------------|
|--------------------------------------|
|-(9)-12-(12)rp9b11==(9)-14--14s12s16--|
|--------------------------------------|
|--------------------------------------|
|--------------------------------------|


          (B5)                             (C5)
                               \1/
                                           ~~~~
    |--3---|       |--3---|
   +E   E  E  S S +S  +S  S E +S     +S  S E.
|---------------------------------------------|
|---------------------------------------------|
|-(16)s12s14s12p9-(9)r(9)p7-9-(9)b10r(9)p7h9--|
|---------------------------------------------|
|---------------------------------------------|
|---------------------------------------------|


        (G5)                             (D5)
 ~~~~~
         |--3--|                          |--3--|
  +E  a  S  S  S      +Q    +E.  S  S  S  S  S  S
|-------------14b17==(14)--(14)r14-12h13-12----12-|
|----------12-------------------------------15----|
|-(9)-9s13----------------------------------------|
|-------------------------------------------------|
|-------------------------------------------------|
|-------------------------------------------------|


                    \0.5____/            \0.5/     \0.5/
          |--3---|  |--------6--------|
   E     +S   S  S  E      +S   S  S  S  S      S  E      S  E.
|---------------------------------------------------------------|
|-15b17r(15)p12----15-----(15)-15-14-12-15-----12-14-----15-12--|
|---------------14----------------------------------------------|
|---------------------------------------------------------------|
|---------------------------------------------------------------|
|---------------------------------------------------------------|


                   T    T    T    T
                        |-3--| |-3--|
   +E   E     +E   S S  E E  E E  E E
|-------------------------------------|
|-(12)\-------------------------------|
|-------9b11==(9)-12p9-14p9-16p9-17p9-|
|-------------------------------------|
|-------------------------------------|
|-------------------------------------|


                         \0.5/
   T    T    T                    ~~
   S S  S S  S S +S  S E S    +S  E. a S
|----------------------------------------|
|----------------------------------------|
|-14p9-16p9-12p9r(9)p7h9-9b10r(9)p7--7s4s|
|----------------------------------------|
|----------------------------------------|
|----------------------------------------|


  (C5)      (G5)           (C5)               (G5)
     T       T              T       T           ~~~~~
             |-----6-----|
  S  S S  S  S S  S S S  S  T T  T  T T  T  S  +E.. T
|-----------12p7h10p7------12p7h10-14p7h10-17-(17)p10-|
|---12p7h10-----------7-10----------------------------|
|-8---------------------------------------------------|
|-----------------------------------------------------|
|-----------------------------------------------------|
|-----------------------------------------------------|


                       (G5)                 (C5)              (D5)
                         \0.5/
  S. T  T T  T  T  +T   +T      T T S  T  T  S  T  T T T  T T  S     +S  S S
|-7h10h12p7h10h12-(12)-(12)p===10p9p7h10h12p10h12p10p9p7----7--------------------|
|--------------------------------------------------------10---10b12r(10)-7-------|
|--------------------------------------------------------------------------9b11==|
|--------------------------------------------------------------------------------|
|--------------------------------------------------------------------------------|
|--------------------------------------------------------------------------------|


                             (E5)
                              T    ~~
  +Q   +S  +S  S S     +Q     S S  E
|------------------------------------|
|------------------------------------|
|-(9)--(9)r(9)p7h9b11==(9)r--12p9-14-|
|------------------------------------|
|------------------------------------|
|------------------------------------|


                   (A5)         a   G     D/F#  G   D/F#G   D/A#
                ~~~~~~~~
        |--3--|
   E  E E +E  E Q  +S   E.    E E E E E E E E   E E E E E E E E
|--------------------------||-----------------|-----------------|
|--------------------------||---2---3-3---3---|-3---3---3---3-2-|
|-14s12p9r(9)p7h9--(9)\----||---2---4-4---2---|-4---2---4---2-2-|
|--------------------------||---2---5-5---4---|-5---4---5---4-2-|
|--------------------------||-----------------|-----------------|
|--------------------------||-----------------|-----------------|


    a   G      D/F#  G a   A7sus2        a   G/a   D/a
                                         PMPMPM  PM  PM
  E E E E +Q   E E   E E E  E +H       E E E E E E E E
|------------------|-------^0-(0)----|-----------------|
|---2---3-(3)--3---|-3-2---^0-(0)----|---2---3-3---3---|
|---2---4-(4)--2---|-4-2---^0-(0)----|---2---4-4---2---|
|---2---5-(5)--4---|-5-2---^2-(2)----|---2---5-5---4---|
|------------------|-------^0-(0)----|---0-0-0---0---0-|
|------------------|-----------------|-----------------|
                                       E E E E E E E E


  G   D/F#G   D/A#               D/F#  G a   A7sus2
    PM  PM  PM      PMPM           PM
  E E E E E E E E   E E E E +Q   E E   E E E  E +H
|-----------------|------------------|-------^0-(0)----||
|-3---3---3---3-2-|---2---3-(3)--3---|-3-2---^0-(0)----||
|-4---2---4---2-2-|---2---4-(4)--2---|-4-2---^0-(0)----||
|-5---4---5---4-2-|---2---5-(5)--4---|-5-2---^2-(2)----||
|---0---0---0-----|-0-0-0----------0-|---0---^0-(0)----||
|-----------------|------------------|-----------------||
  E E E E E E Q     E E E E  Q   E E


 4th Verse
    a   G     D/F#  G   D/F#G   D/A#    A6  G      D/F#
    PM------------------------------------|
  E E E E E E E E   E E E E E E E E   E E E E +Q   E E
|-----------------|-----------------|---2--------------|
|---2-2-3-3-x-3-x-|-3-x-3-x-3-x-3-2-|-x-2-x-3-(3)--3---|
|---2-2-4-4-x-2-x-|-4-x-2-x-4-x-2-2-|-x-2-x-4-(4)--2---|
|---2-2-5-5-x-4-x-|-5-x-4-x-5-x-4-2-|-x---x-5-(5)--4---|
|-----------------|-----------------|------------------|
|-----------------|-----------------|------------------|


  G a   A7sus2                 a   G     D/F#  G   D/F#G     AsAs4
  PM|                                PM--|
  E E E E +E    E  S  S  E   E E E E E E E E   E E E E E E a E E
|-------0-(0)-----10s11-12-|-----------------|-------------------|
|-3-2---0-(0)-----10s11-12-|---2---3-----3---|-3---3---3---2h3-2-|
|-4-2---0-(0)-----10s11-12-|---2---4-4---2---|-4---2---4-----2-2-|
|-5-2---2-(2)--------------|---2---5-5-5-4---|-5---4---5-------2-|
|-------------/10----------|-----------------|-------------------|
|--------------------------|-----------------|-------------------|


                                       Chorus
    a   G    D/F#  G a   A7sus2            D/F#G5   D/F#
  E E E E Q  E E   E E E  E +Q.    E    E  E E E Q  E E
|----------------|-------^0-(0)------||-----------------|
|---2---3-3--3---|-3-2---^0-(0)------||----3-3-3-3--3---|
|---2---4-4--2---|-4-2---^0-(0)------||----2-2-0-0--2---|
|---2---5-5--4---|-5-2---^2-(2)------||----0-0-0-0--0---|
|----------------|-------------------||-----------------|
|----------------|----------------14s||=5\-2-2-3-3--2---|


  G5  D/F#G5 A5        D/F#G5             A5
  E E E E Q  E E   +E  E E E Q  E   E   E Q  E +E  E   +E    E
|----------------|--------------------|------------------------|
|-3---3---3------|-----3-3-3-3--------|------------------------|
|-0---2---0--2-2-|-(2)-2-2-0-0--------|------2-(2)-----------2-|
|-0---0---0--2-2-|-(2)-0-0-0-0--------|---2--2-(2)-----------2-|
|------------0-0-|-(0)----------------|---0--0-(0)-----------0-|
|-3---2---3------|-----2-2-3-3--2b3p0-|-3----------3b5r(3)b5---|


      D/F#G5   D/F#  G5  D/F#G  a         D/F#G5
  +E  E E E Q  E E   E E E E Q  E E   +E  E E E Q  E   E
|------------------|----------------|--------------------|
|-----3-3-3-3--3---|-3---3---0--2-2-|-(2)-3-3-3-3--------|
|-(2)-2-2-0-0--2---|-0---2---0--2-2-|-(2)-2-2-0-0--------|
|-(2)-0-0-0-0--0---|-0---0---0--2-2-|-(2)-0-0-0-0--------|
|-(0)--------------|------------0-0-|-(0)----------------|
|-----2-2-3-3--2---|-3---2---3------|-----2-2-3-3--2b3p0-|


                     Outro
    A5                    D/F#G5              D/F#G  a
                ~
  E Q   E  E  E Q     +E  E E E E E E E   E E E E Q  E E
|------------------||-------------------|----------------|
|----------7--6-5--||-(5)-3-3-3-3-------|-3---3---0--2-2-|
|---2--------------||-----2-2-0-0-------|-0---2---0--2-2-|
|---2--/7-(7)-6-5--||-(5)-0-0-0-0-------|-0---0---0--2-2-|
|---0--------------||-------------------|------------0-0-|
|-3----------------||-----2-2-3-3p0-2p0-|-3---2---3------|


      D/F#G5   N.C.
                          T       T       T       T
                          |-----6------|  |-----6------|
  +E  E E E Q   E    E    S S  S  S S  S  S S  S  S S  S  E  E  E  E
|----------------------|---------------------------------------------|
|-(2)-3-3-3-3----------|---------------------------------12-12-13-14-|
|-(2)-2-2-0-0----------|---------------------------------------------|
|-(2)-0-0-0-0------/10-|-19p9h10-19p9h10-19p9h10-19p9h10-12-12-13-14-|
|-(0)----------12\-----|---------------------------------------------|
|-----2-2-3-3----------|---------------------------------------------|


        D/F#G5              D/F#G  a         D/F#G5  N.C.
   +E   E E E E E E E   E E E E Q  E E   +E  E E E E  E E E
|---------------------|----------------|--------------------|
|-(14)\-3-3-3-3-------|-3---3---0--2-2-|-(2)-3-3-3-3----5-7-|
|-------2-2-0-0-------|-0---2---0--2-2-|-(2)-2-2-0-0----5-7-|
|-(14)\-0-0-0-0-------|-0---0---0--2-2-|-(2)-0-0-0-0-/7-----|
|---------------------|------------0-0-|-(0)----------------|
|-------2-2-3-3p0-2p0-|-3---2---3------|-----2-2-3-3--------|


                                    D/F#G5  N.C.    G5N.C.        A5
                  T    ~~~
  E S S S    +S   S S  Q    Q     E E E E E E E E   E E E E E   E E E
|------------------------------||-----------------|-------------------|
|-7----------------------------||---3-3-3-3-------|-3-----------------|
|-7-7p5-7b9==(7)-10p7-12r------||---2-2-0-0-------|-0-------------2-2-|
|------------------------------||---0-0-0-0-------|-0-------------2-2-|
|------------------------------||-----------------|---------------0-0-|
|--------------------------10s=||=2-2-2-3-3p0-2p0-|-3p0-2p0-3b4p0-----|


      D/F#G5  N.C.                             D/F#G5  N.C.
                                   T
  +E  E E E E E E E   E  Q   E +E  E  Q     E  E E E E E E E
|-------------------|--------------------|-------------------|
|-----3-3-3-3-------|----7s==5-(5)-x/-5--|-----3-3-3-3-------|
|-(2)-2-2-0-0-------|--------------------|-----2-2-0-0-------|
|-(2)-0-0-0-0-------|-7-(7)s=5-(5)-x/-5--|-----0-0-0-0-------|
|-(0)---------------|--------------------|-12\---------------|
|-----2-2-3-3p0-2p0-|--------------------|-----2-2-3-3p0-2p0-|


  G5N.C.        A5        D/F#G5  N.C.                                  A5
                                         ~~~~~~~~          ~~~~~~~
  E E E E E   E E E   +E  E E E E  E E S S   +E  E E S    +S  +E  E S S E
|-------------------|----------------------|------------------------------|
|-3-----------------|-----3-3-3-3----5-5h7-|-(7)-5-7-7b8==(7)-(7)---5-----|
|-0-------------2-2-|-(2)-2-2-0-0----5-5h7-|-(7)-5-7-7b9==(7)-(7)-7p5---2-|
|-0-------------2-2-|-(2)-0-0-0-0-/7-------|--------------------------7-2-|
|---------------0-0-|-(0)------------------|----------------------------0-|
|-3p0-2p0-3b4p0-----|-----2-2-3-3----------|------------------------------|


                           PM  TP  TP  TP    TP  TP
  Q  E E Q  E E    +Q.   E E   E   E   E     E   E   E   E   E   E    E    E
|---------------||------------------------:-----------------------------------:
|---------------||------------------------:-----------------------------------:
|------2------2-||-(2)---2----------------:-------------------------<12>------:
|------2------2-||-(2)---2----------------:---------<3>-----<5>---------------:
|------0------0-||-(0)---0-0-<12>-<7>-<5>-:-<4>-<3>-----<3>-----<5>------<12>-:
|---------------||------------------------:-----------------------------------:


    \0.5______|    \6___________|     \0.5/   \2_____/
                                ~~~
    Q        +Q    Q    +Q     +H     Q      +Q      Q  +E. T T H
|----------------------------:---------------------:-----------------*|
|----------------------------:---------------------:--------5-5-5----*|
|----------------------------:--------2------(2)---:--------2-2-2----*|
|-<12>-----(<12>)------------:---------------------:--------2-2-2----*|
|------------------0----(0)--:-(0)-----------------:-0--(0)-0-0-0----*|
|----------------------------:---------------------:-----------------*|

22.JAMIES CRYIN

E---------------------------------------------------------------|
B------14^-(14)--(14)-(14)-X--15^-12^-12-(12)-(12)-(12)---------|
G----X---------------------X------------------------------------|
D--X------------------------------------------------------------|
A---------------------------------------------------------------|
E---------------------------------------------------------------|
    P.M.----|  ~~~~~~~~~~  P.M.---------------------------------|
E---------------------------------------------------------------|
B---------------------------------------------------------------|
G---------------------------------------------------------------|
D---------------------------------------------------------------|
A---------------------------------------------------------------|
E-0--0-0--0-0--7-6-5-3-0--0-0--0--0--7-6-5-3--------------------|

E----------------------------------------------------------------|
B-------14^--14--(14)\-12--10--10^--10---9-(9)-(9)---------------|
G----X-----------------------------------------------------------|
D--X-------------------------------------------------------------|
A----------------------------------------------------------------|
E----------------------------------------------------------------|
  P.M.     P.M.---|                     P.M.    P.M.
E-------7-------------0--(0)------------------7----------(0)--(0)-------------------|
B-------7-------------7--(7)------------------7-----------0---(0)-------------------|
G-------7-------------7--(7)------------------7-----------7---(7)-------------------|
D---------------------0--(0)------------------------------0---(0)-------------------|
A---------------------X-----------------------------------5---(5)-------------------|
E--0--------0--0------7--(7)-----7-6-5-3--0------0--0-----7---(7)---7-6-5-3---------|
   P.M.                               P.M.
E---------7---X-X----------------0-0--------7--X-X---------------0----|
B---------7---X-X--7-(7)---X-X---5-5--------7--X-X--------X-X--5------|
G---------7---X-X--7-(7)---X-X---7-7--------7--X-X-7--(7)-X-X--7----7-|
D-------------X-X----------X-X---7-7-----------X-X-7--(7)-X-X--7----7-|
A--------------------------X-X----------------------------X-X---------|
E---0----------------------------------0------------------------------|
 P.M.                               P.M.      P.M.
E------7-X-X------------------0--0---------7------------------------------|
B------7-X-X--7--(7)---X--X---5--5---------7-----------0-(0)--------------|
G------7-X-X--7--(7)---X--X---7--7---------7-----------7-(7)--------------|
D--------X-X-----------X--X---7--7---------------------0-(0)--------------|
A----------------------X--X------------------------X----------------------|
E--0----------------------------------O---------0--0---7-(7)---7-6-5-3----|
                             |CHORUS|
                                    P.M.       P.M.
E------------------------------------------7---------0-(0)-------------|
B------------------------------------------7---------7-(7)-------------|
G------------------------------------------7---------7-(7)-------------|
D-------------0-4-2--(2)--2-2-2-X--------------------0-(0)-------------|
A------0-4-2------0--(0)--0-0-0-2--------------------X-----------------|
E---2---------------------------------0--------0-0---7-(7)---7-6-5-3---|
     P.M.      P.M.         ~~~~~~~~~~~~~              P.M.
E-----------7------------------------------------------------7--------0-(0)---|
B-----------7------------------------------------------------7--------7-(7)---|
G-----------7------------------------------------------------7--------7-(7)---|
D---------------------------------------------------------------------0-(0)---|
A---------------------7^-----5--(5)-----X\----------------------------5-(5)---|
E-----0----------0----------------------12\--7--6--5--3--0-------0-0--7-(7)---|
                 P.M.       P.M.         ~~~~~~~~~~~
E-------------------------7----------------------------------------|
B-------------------------7----------------------------------------|
G-------------------------7----------------------------------------|
D------------------------------------------------------------------|
A----------------------------------7^----5-----(5)-----------------|
E-----7--6--5--3--0----------0-------------------------7-6-5-3-----|

E-------------0----------------0------------------0-------------0---0-|
B-----0---0------0-----0--0--------------0---0------0-----0--0--------|
G-----6---7--------7---4--6-------6--6---6---7--------7---4--6-----6--|
D-----7---9------------5--7--------------7---9------------5--7--------|
A---------------------------------------------------------------------|
E---------------------------------------------------------------------|

E-----------0-------------0-------------------------0-------0--------|
B---5---7-----0-----3--5----0-----5--7--------7---------3---5--------|
G---6---7-------7---4--6------6---6--7-----------7------4---6--------|
D---7---9-----------5--7----------7--9------------------5---7--------|
A--------------------------------------------------------------------|
E---------------------------------------------------------------12\--|
        THEN GO INTO THE CHORUS AGAIN
   ~~~~~~~~~~~~~~~~~                   HAMMER ON
E-------------------------------------------------------------------|
B------------------------------5-------4----5----7--7-5-7-7-5-------|
G------------------------------6--------------------7-7-7-7-7-(7)---|
D------------------------------6------------------------------(7)---|
A-------(5)--------------------4------------------------------------|
E-------------------7---6-5-4---------------------------------------|

E------------------------------------------2--0--2---------------------------|
B--------------4-5---4---------------------2--0--2---------5--4----------7---|
G--------------------------6\----------------------------6------6--------7---|
D----------6---------------------------4---------------6----------6------7---|
A-------4---------------------------4--------------------------------5-------|
E--------------------------------2-------------------------------------------|
                    |EDDIE'S GUITAR SOLO|
                        ~~~~~~~~~~~~~~~
E-------------5-4-----------------------------------------|
B------------------------5--------------------------------|
G---------------------------4-----------------------------|
D---------------------------------------------------------|
A------------------------------------7-----7^---5---------|
E----0---(0)-------------------14\-0----0-----------------|

E---------------------0--0-------------------------------------0-0----------|
B---------------------0--0-------------------------------------0-0----------|
G---------------------------------------------------------------------------|
D---------------------------------------------------------------------------|
A-----(5)--(5)-----------------------7----7^--5--(5)-(5)--------------------|
E---------------3-4-----------3-4-0-----0-----------------3-4------3-4------|

E-------------------------------------------------------------------|
B---------9--9^--7--(7)-7\14\-X--------------------------9---9^--7--|
G---------9--9^--7--(7)-7\14\-X--------------------------9---9^--7--|
D-------------------------------------------------------------------|
A---------------------------------5-6-7-(7)-(7)\-2\-X---------------|
E----0--------------------------------------------------------------|
     THEN YOU PLAY THE CHORUS
E-----------------------------------------|
B-----------------------------------------|
G-----------------------------------------|
D----------------------0-4-2---2-2-2-4----|
A---------------0-4-2------0---0-0-0-2----|
E---7--6-5-3-2----------------------------|

23.RUNAROUND

|---||---------------0-|--------------|-----------------|------------------|
|---||-------------3---|-3------------|---------------3-|------------------|
|---||-----2-----2-----|---2----------|-----2-------0---|------------------|
|---||---2-----0-------|--------------|---2-------------|------------------|
|---||-0-----3---------|----------0-3-|-0-----3---------|------------------|
|-3-||-----------------|-----3~~~-----|---------3~------|------------------|

--------------|---------------0-|--------------|-------------3-|-----------|
1-0-----0-----|-------------3---|-3------------|-------------3-|-----------|
------2---2---|-----2-----2-----|---2----------|-----2-------0-|-----------|
----0---------|---2-----0-------|--------------|---2---------0-|-----------|
--------------|-0-----3---------|----------0-3-|-0-----3-------|-----------|
------------3-|-----------------|-----3~~~-----|---------3~----|-----------|

3-3-3-2---2-2-0-|------------|------------|------------|-------------------|
3-3-3-3---3-3-3-|-------15---|-------14---|-------13---|-------------------|
0-0-0-2---2-2-2-|----12------|----12------|----10------|-------------------|
0-0-0-0---0-0-0-|-14---------|-14---------|-12---------|-------------------|
----------------|------------|------------|------------|-------------------|
----------------|------------|------------|------------|-------------------|

-------------------|------------|------------|----------|------------------|
12-12-10h12-10-----|-------15---|-------14---|-------13-|------------------|
10-10-10----10-----|----12------|----12------|----10----|------------------|
10-10-10----10-----|-14---------|-14---------|-12-------|------------------|
-----------------0-|------------|------------|----------|------------------|
-------------------|------------|------------|----------|------------------|


                                             B
--------------14---12\--||----------|--------------|----------|------------|
12-12-12-10---12---12\--||----------|--------------|----------|------------|
10-10-10-10---12--------||----------|--------------|----------|------------|
10-10-10-10-----------2-||-2--------|------------2-|-2--------|------------|
----------------------0-||-0--------|-----5------0-|-0--------|------------|
------------------------||-------12\|-2------2-----|-------12\|------------|
                              "She don't like it..."     "And don't like..."

       B                          B
--------------|----------|--------------|---------------|------------------|
--------------|----------|--------------|-----------5-7-|------------------|
--------------|----------|--------------|-------5---5-7-|------------------|
----7-------2-|-2--------|------------2-|-2-2/7---7-----|------------------|
4------4~~~-0-|-0--------|-----5------0-|-0-0-----------|------------------|
--------------|-------12\|-2------2-----|---------------|------------------|
                                             "She ain't about to give..."

B&r
---------------|------------|------------|----------|----------------------|
-7-------------|-------15---|-------14---|-------13-|----------------------|
-7------p5-----|----12------|----12------|----10----|----------------------|
-----------7-7-|-14---------|-14---------|-12-------|----------------------|
-------------0-|------------|------------|----------|----------------------|
---------------|------------|------------|----------|----------------------|


                              B                      B
--------------14---12\--||----------------|----------------|----------|----|
12-12-12-10---12---12\--||----------------|----------------|----------|----|
10-10-10-10---12--------||--------2---x-x-|----------------|----------|----|
10-10-10-10-----------2-||-2------2---x-x-|--------------2-|-2--------|----|
----------------------0-||-0--3-------x-x-|-------5------0-|-0--------|----|
------------------------||----------------|-2--------2-----|-------12\|----|
                                 "She can take me..."

     a.H.......                             B
--------------------|-------------|--------------|---------------|---------|
--------------------|-------------|--------------|-----------5-7-|---------|
--------------------|-------2-----|--------------|-------5---5-7-|---------|
-----7------------2-|-2-----2-----|------------2-|-2-2/7---7-----|---------|
4------4---4-4~~~-0-|-0-3-----x-x-|-----5------0-|-0-0-----------|---------|
--------------------|-------------|-2------2-----|---------------|---------|
"...drives me home..."

b&r                p.m...
---------------||------------------|---------------------|-----------------|
-7-------------||--------5-----7---|-----10---9h10p9-----|-----------------|
-7------p5-----||------6-----------|-9---------------9---|-----------------|
-----------7-7-||----6-------7---9-|---9---------------9-|-----------------|
-------------0-||--4-------5-----7-|---------------------|-----------------|
---------------||----------------0-|---------------------|-----------------|
                  "I'd walk, but I want it..."


--------------------|-------------------|-----------------|----------------|
--------10-----7/10-|-9-----------------|-----------------|----------------|
-----11-------------|---9---------------|-----6-----------|----------------|
--11---------7------|-----9---7h9p7\6---|---6-------------|----------------|
9----------5--------|-----------------7-|-4----/7-5-5/9-7-|----------------|
-----------------0--|-------------------|---------------0-|----------------|
"what fool believes.."                   "I've got her in my sight..."

                      p.m...
--------------------|------------------|-------------||--------------------|
-----------------10-|--------3-2-------|-0-----------||--------------------|
--9-----------11----|------2-----2---1-|-2---1-------||--------------------|
9----------11-------|----2-----------2-|-2---2-------||--------------------|
---/11-9------------|--0-------------2-|-----2-------||--------------------|
--------------------|----------------0-|-----------3-||--------------------|
"But just out of..."


--------------0-|--------------|-----------------|---------------|---------|
------------3---|-3------------|---------------3-|-1-0-----0-----|---------|
----2-----2-----|---2----------|-----2-------0---|-------2---2---|---------|
--2-----0-------|--------------|---2-------------|-----0---------|---------|
0-----3---------|----------0-3-|-0-----3---------|---------------|---------|
----------------|-----3~~~-----|---------3-------|-------------3-|---------|
"Here we go around..."


--------------0-|--------------|-----------------|-------------||
------------3---|-3------------|---------------3-|-1-0-3---3---||
----2-----2-----|---2----------|-----2-------0---|-----2---2---||
--2-----0-------|--------------|---2-------------|-----0---0-2-||
0-----3---------|----------0-3-|-0-----3---------|-----------0-||
----------------|-----3~~~-----|---------3-------|-------------||

Then it's back to the verse, pre-chorus, and chorus parts one more time
through, then it's SOLO time.  (DON'T ASK!)  After that, there's a bit of
a "bridge":

||----------|---------|---------|-------------|----------|---------|-------|
||-----10---|-----9---|-----8---|-7-7-5h7-5---|-----10---|-----9---|-------|
||---7------|---7-----|---5-----|-5-5-5---5---|---7------|---7-----|-------|
||-9--------|-9-------|-7-------|-5-5-5---5---|-9--------|-9-------|-------|
||----------|---------|---------|-------------|----------|---------|-------|
||----------|---------|---------|-----------0-|----------|---------|-------|
                       "oo.   ah."             "It goes like this"

                              b              bf     pm
--------------|-----9-----||--------|-----------------|--------------------|
----8-----7-7-|-7-5-7-7---||--------|-----------------|--------------------|
--5-------5-5-|-5-5-7-7---||--------|-----------------|--------------------|
7---------5-5-|-5-5-7-7---||--------|-----2---------2-|--------------------|
--------------|---------2-||--------|---------------2-|--------------------|
--------------|---------0-||--3-----|-4------4------0-|--------------------|
                             "Oh man it's..."

                                           b            bf     pm
--------------------------|---9-9-9-7-|--------|-----------------|---------|
--0-3h5p3p0-5p3p0---------|---7-7-7-7-|--------|-----------------|---------|
------------------2h4p2p0-|---7-7-7-7-|--------|-----------------|---------|
--------------------------|-----------|--------|-----2---------2-|---------|
--------------------------|-----------|--------|---------------2-|---------|
--------------------------|-0---------|-0--3---|-4------4------0-|---------|
"And you make it harder..."               "Fill me up..."

                   B
------------|-------------------------||
------------|-------------------------||
------------|-------------------------||
----------2-|-------------------------||
----2-4---2-|-------------------------||
3h4-------0-|-----------------------3-||
Oh man she owns it."   "Here we go a-    round..."

(go to the chorus and ad lib a fade-out)

24.ILL WAIT

solo

            \/ \/            \/ \/            \/ \/
[-harm---------------------------------------------------]      [--P.M.-----------|
----------------------------------------------------------------------------------|
----------------------------------------------------------------------------------|
----7-----7------------7-----7--------7-----7------------------------5-------5----|
-------------------------------------------------------------------------7--------|
------------------------------------------------------7---------------------------|
----------------------------------------------------------------------------------|


-------------------------------------------------------------------17br--------------|
------------------6----8-------------------------------------------------15--18--17b-|
--7---5b-----7--------------7b-----------------------------/16-14--------------------|
--------------------------------5b----3-------------/14-12---------------------------|
---------------------------------------------/12-10----------------------------------|
-------------------------------------------------------------------------------------|


------------------------12--------------------12---10---13---13---12----13p12h13p12p10--|
--15--17------15-------------13p10------------------------------------------------------|
----------14------------------------10--------------------------------------------------|
----------------------------------------------------------------------------------------|
----------------------------------------------------------------------------------------|
----------------------------------------------------------------------------------------|


----10----------------------------------------20--------------------20-----------|
-13----13brp10------13b------------20brb----------20b-----20brb------------18b---|
----------------12---------------------------------------------------------------|
---------------------------------------------------------------------------------|
---------------------------------------------------------------------------------|
---------------------------------------------------------------------------------|


----------------------------------------------10h13----------------------------------|
------------------------------------10h12h13-----------------------------------------|
--------------------------10h12h13---------------------3p0--3p0---3p0--3b---3---0----|
-------------10----10-12-------------------------------------------------------------|
-/8---12p10-----12-------------------------------------------------------------------|
-------------------------------------------------------------------------------------|

                                                   \/ realese & vib.
---12-----10--------------8h10---(10)p8-----------------------------------10-----|
---------------10------------------------8---------------------------------------|
-----------------------------------------------(7)--(7)------------12b-----------|
---------------------------------------------------------------------------------|
---------------------------------------------------------------------------------|
---------------------------------------------------------------------------------|

[--\/ vib.------------------|
--(10)-------(10)/17--------|
----------------------------|
----------------------------|
----------------------------|
----------------------------|
----------------------------|

25.WHY CANT THIS BE LOVE

riff during verses

----------------------------------------------------------------------------------|
----------------------------------------------------------------------------------|
----------------------------------------------------------------------------------|
---------------------------2------------------------------------------------------|
--5---5---3----5----3--0---0----3----0----0---2h3---------0--3p0h2p0--------------|
-----------------------------------------------------1-----------------3---0---0--|


-----------------------------------------------------------------------------------|
-----------------------------------------------------------------------------------|
-----------------------------------------------------------------------------------|
--------------------------------------------------2--------------------3----3------|
--------------2h3h5--5p3h5------5----0----3h5p3-------3---0----0h2h3-----------3---|
--3p1--1--0------------------------------------------------------------------------|


-----------------------------------------------------------------------------------|
-----------------------------------------------------------------------------------|
-----------------------------------------------------------------------------------|
-------------------------------------------3p0------------------2---3---3----------|
---0---2p0--------------------------------------1---------1--5----------------3p0--|
-------------3----0----3p1--1p0-0-0---0------------1-------------------------------|


------------------------------------------------------------------------------------|
------------------------------------------------------------------------------------|
-----------------2---3---3----3------------3-------------0--------------------------|
----------3--5-------------------3p1---------------1h3-------3---3--3------5p3------|
-------3-------------------------------1-------1-----------------------3--------5---|
--1---------------------------------------------------------------------------------|


---------------|
---------------|
---------------|
---------------|
--5---2h3p2h3--|
---------------|


chorus

----------------------------------------------------------------------------------|
----------------------------------------------------------------------------------|
----------------------------------------------------------------------------------|
----------------------------------------------------------------------------------|
-2--3---2---3-----3---2--3--3p2--3-3p2--2-3---5--3---2---3---2---3---2--3---5--3--|
---------------3------------------------------------------------------------------|


----------------------------------------------------------------------------------|
----------------------------------------------------------------------------------|
----------------------------------------------------------------------------------|
----------------------------------------------------------------------------------|
-2--3--2--3---2--3----5--3---2---3---2--3------3----2---3---2---3---2---3--3p2h3--|
--------------------------------------------3-------------------------------------|

--------------------------------------------------|
--------------------------------------------------|
---------------------------------------2----------|
-----------------------2--------------------------|
--3h5---3---2p0--0-----0----0---3h5---------3h5---|
--------------------3-----------------------------|

solo

-------------------13-15--------------------------13--------------|
-13--15--13---15---14-16----11--13--11------------14---15---13----|
-13--15--13---15------------11--13--11--13p11h13-------15---13----|
------------------------------------------------------------------|
------------------------------------------------------------------|
------------------------------------------------------------------|

                                                        \/    \/    \/
----------------------------20---------------------------------------------|
-15p13-------15p13h15\18-18-20-20--\10--11------13p11---13b---13b---13b----|
-15p13h15p13h15p13h15\18-18-20-20--\10--11--11--13p11----------------------|
---------------------------------------------------------------------------|
---------------------------------------------------------------------------|
---------------------------------------------------------------------------|

     \/                                             \/ \/  \/
-----------------13----x--15--------------------------------------|
--13h15p13h15----14----x--16-----11---13--------------------------|
--13h15p13-----------------------11---13p11----10\15p13p11\10/----|
------------------------------------------------------------------|
------------------------------------------------------------------|
------------------------------------------------------------------|

26.RUNNIN WITH THE DEVIL

trum strings behind nut
           |
 intro     V           riff A                                        end riffA
|----x----------------|-------------------|----------------------------|
|-----x---------------|--5---7--------x-x-|---7-H-8---10---9-----------|
|------x--------------|--5---7--------x-x-|---7-H-----9----9-----------|
|-------x-------------|--5---7--------x-x-|---7-H-9---11---9-----------|
|--------x------------|-------------------|----------------------------|
|---------x------17\--|-------------------|------------------------19\-|


repeat riff A 3 times.

verse 1
I live my life like there's no tomorrow.
|------------------------|-------------------|
|------------------------|-------------------|
|--2------------------4--|----2---------0----|
|--2-------2----------5--|----4---------2----|
|--0-------0-------0-----|--0--------0-------|
|------3-----------------|-------------------|


And all I've got I had to steal.
                                   harm.........}
|------------------------|-----------12----7-----|
|------------------------|---------12-----7------|
|--2------------------4--|----2----------------5-|
|--2-------2----------5--|----4------------------|
|--0-------0-------0-----|--0--------------------|
|------3-----------------|-----------------------|


Least I don't need to beg or borrow.
|------------------------|-------------------|
|------------------------|-------------------|
|--2------------------4--|----2---------0----|
|--2-------2----------5--|----4---------2----|
|--0-------0-------0-----|--0--------0-------|
|------3-----------------|-------------------|


Yes I'm living at a pace that kills.
|------------------------|-------------0-----|
|------------------------|-------------0-----|
|--2------------------4--|----2--0-----0-----|
|--2-------2----------5--|----4--2--0--2-----|
|--0-------0-------0-----|-------------2-----|
|------3-----------------|-------------0-----|

Chorus
repeat riff A 4 times
Runnin' with the Devil.    Runnin with the Devil.

Verse 2

I found the simple life ain't so simple

|------------------------|-------------------|
|------------------------|-------------------|
|--2------------------4--|----2---------0----|
|--2-------2----------5--|----4---------2----|
|--0-------0-------0-----|--0--------0-------|
|------3-----------------|-------------------|

When I jumped out on that road
                                        *trill
|------------------------|---------------------|
|------------------------|-------------7^9-----|
|--2------------------4--|----2--0-----7^9-----|
|--2-------2----------5--|----4--2-------------|
|--0-------0-------0-----|--0------------------|
|------3-----------------|---------------------|

I got no love, no love you'd call real.

|------------------------|-------------------|
|------------------------|-------------------|
|--2------------------4--|----2---------0----|
|--2-------2----------5--|----4---------2----|
|--0-------0-------0-----|--0--------0-------|
|------3-----------------|-------------------|

Ain't got nobody waitin' at home.
|------------------------|-------------0-----|
|------------------------|-------------0-----|
|--2------------------4--|----2--0-----0-----|
|--2-------2----------5--|----4--2--0--2-----|
|--0-------0-------0-----|-------------2-----|
|------3-----------------|-------------0-----|

Chorus:
repeat riff A 4 times

Solo: starts on last beat of chorus.
|---------|----------------------------------------|
|---------|14-15-17-15-15^14-------14--------------|
|------14-|------------------14------14---------12-|
|--7/14---|---------------------14-----14--5/12----|
|---------|----------------------------------------|
|---------|----------------------------------------|

|----------------------------------------|
|-12-13-15-13-13^12------12--------------|
|------------------12------12---------14-|
|--------------------12------12---7/14---|
|----------------------------------------|
|----------------------------------------|

                       full......}
|-------------------17B-----17-17---17--------|
|-14-15-17-15-15^14------------------------12-|
|---------------------------------------------|
|---------------------------------------------|
|---------------------------------------------|
|---------------------------------------------|


|--------------14--15--16-------------\------|
|-12/13-15^13--15--16--17-------------\------|
|--------------------------------------------|
|--------------------------------------------|
|--------------------------------------------|
|--------------------------------------------|

repeat riff A 2 times
You know I..

3rd verse

Found the simple life,  weren't so simple
|------------------------|-------------------|
|------------------------|-------------------|
|--2------------------4--|----2---------0----|
|--2-------2----------5--|----4---------2----|
|--0-------0-------0-----|--0--------0-------|
|------3-----------------|-------------------|


When I jumped out on that road.     harm............}
|------------------------|-------------12----------5-|
|------------------------|-------------------7---5---|
|--2------------------4--|-----0----12-----7---5-----|
|--2-------2----------5--|--5--2---------------------|
|--0-------0-------0-----|---------------------------|
|------3-----------------|---------------------------|

Got no love, no love you'd call real.
|------------------------|-------------------|
|------------------------|-------------------|
|--2------------------4--|----2---------0----|
|--2-------2----------5--|----4---------2----|
|--0-------0-------0-----|--0--------0-------|
|------3-----------------|-------------------|

Got nobody waitin' at home.
|------------------------|-------------0-----|
|------------------------|-------------0-----|
|--2------------------4--|----2--0-----0-----|
|--2-------2----------5--|----4--2--0--2-----|
|--0-------0-------0-----|-------------2-----|
|------3-----------------|-------------0-----|

repeat riff A 4 times
repeat solo.
repeat riff A 5 times.

27.WHEN ITS LOVE

Drop D tuning.


Intro:
-2---3----5-|-------------|----------------|--------------|--------|
-3----------|-----5-------|---7----8---10--|-----8--------|--------|
------------|----------6--|---7------------|---------7----|--------|
-0----------|-------------|----------------|--------------|--------|
------------|-0-----------|---9------------|-10-----------|--------|
------------|-------------|----------------|--------------|--------|


Repeat this. Then:

-2---3---5-|--5------------|--2----3---5--|--5---3-----3--------|-----|
-3---------|------5--5-----|--3-----------|---------------3-----|-----|
-----------|-----------6---|--------------|------------------4--|-----|
-0---------|-------------7-|--4-----------|--5------------------|-----|
-----------|--0------------|--------------|---------------------|-----|
-----------|---------------|--------------|---------------------|-----|


Repeat this too. End with C9 and F5.

PArt 1:

-----------------------|--------------------------|
-----------------------|-----------5-----5--------|
-7----------5-------7--|-----------5-----5--------|
-5------5-7-5-----7-7--|-------5-7-7-----7--------|
-5--5------------------|--------------------------|
-0--0-------3-------5--|--5--5-----7-----7--------|

Repeat this four times.

Verse 1:

Everybodys looking for something

Something to fill in the holes

We think a lot but dont do much
about it
til things get out of control

Chorus:

D                       a

How do i know when its love
        Bm                     E  F#  a

I cant tell you but it lasts forever


How does it feel when its love

Its just something you feel together

When its love

Verse 2:

You look at every face in the crowd

Some shine and some keep you guessing

Waiting for someone to come into focus

Teach you your final love lesson


Chorus

Bridge, Chorus out.
I cant be bothered to figure out the bridge yet.
The outro goes:

D    a    D/F#    G

28.DANCING IN THE STREET

 Dancin in the Street's[ partial] echo set for like  1/2 sec feedback on 1/2
 echo vol less than 3/4.       [also here  < bend the shit outta it]
     slightly muted  < move a.h. towards neck from bridge      art.harm
 e------------------------------------------------------------------------|
 b------------------------------------------------------------------------|
 g              7                5            7          5   ^ -----------|
 d            7                5            7          5     5
 a          5                5            5          5 ---------------------|
 e 0sl.12-------------------------------------------------------------------|

 e------------------------------------------------------------------------|
 b-----------------------------------------------------------^------------|
 g         5             3                5               3  3
 d       5             3                5               3 ----------------|
 a     3             3                3               3 ------------------|
 e------------------------------------------------------------------------|

29.NOT ENOUGH

Intro (bogus, but just in case a piano isn't handy... :-)

                 C      Em    F           Dm     am     Bb
        e|-------0------0-----1---------0-1----1--0---------------------|
        B|-----0-1----1-0-----1-----1-3---3--1----1-1---3---------------|
        G|-0-2---0--0---0-0---2-----------2-------2-----3---------------|
        D|-------2------2-----3-----------0-------2-----3---------------|
        A|-------3--------------------------------0-----1---------------|
        E|--------------------------------------------------------------|

                 Bb      F     C           Dm     am     Bb     F   C
        e|-------------------------------0-1----1--0-------3------------|
        B|-------3-------------1-----1-3---3--1----1-1---3------1---1---|
        G|---0-2-3-----3-2-----0-----------2-------2-----3----3-2---0---|
        D|-3-----3---3---3-3---2-----------0-------2-----3--3---3-3-2---|
        A|-------1-------3-----3-------------------0-----1------3---3---|
        E|---------------1----------------------------------------------|

Two-fingered piano riff that leads into most verses:

        This version is        Something like this sounds
        pretty much like       not as 'thin' for one
        the piano part...      guitar playing alone...

                    F             C   G   F
        e|----------1---|     |-----------1---|
        B|--5-6-3-1-1---|     |---5-6-3---1---|
        G|--5-7-4-2-2---|     |---5---4-5-2---|
        D|----------3---|     |---5---5---3---|
        A|----------3---|     |---3---5---3---|
        E|----------1---|     |-------3---1---|


Verse 1
        F           G           C      C/G    F
        to love somebody ...
        to love somebody ...
        to love somebody ...
           Em   am        Em   F           G   C
        is not enough, is not ....

Verse 2
        F           G          C       C/G   F
        to love somebody ....
        to love somebody ....
        F           G          C       Em     am
        to love somebody ...
             Em   Dm          G   am
        it's not enough, ...

(Lead-in to chorus):

            am            Bb
        e|--0-------------1----|
        B|--1-------------3----|
        G|--2-------------3----|
        D|--2-------------3----|
        A|--0--0-3-2-0----1----|
        E|-------------0-------|

Chorus:
        Bb   C             F
        love hurts ...
        Bb          C       F
        it's not so ...
        Bb        C    F
        searchin' eve...
            am       Bb          C           Dsus2
        you turn and swea...

Verse 3:
        F           G           C       C/G    F
        to love somebody ...
        to love somebody ....
        to love somebody e....
           Em   am        Em   Dm          G    am
        is not enough, is not ....

Chorus:
        Bb   C              F
        love takes a ...
        Bb          C       F
        it's not so easy ...
        Bb        C    F          am       Bb
        searchin' everywhere, ...
              C           Dm     Em  F  G     A5 Bb    a
        she's always been ....

Solo:
        Dm Em F G a-Bb a     (2x)
        Dm Em F G Asus4 a

Verse (sung over piano intro):

                  C          Em   F
        and if it don't ...
        Dm            am      Bb
        one thing you ...
                Bb          F        C
        you can always ...
                   Dm         am     Bb
        because my ....
              F     C
        yours ho...

Chorus:
              Bb   C         F
        yeah, love ....
        Bb     C       F
        not so easy to ...
        Bb        C    F           am       Bb
        searchin' ...
             C           F      C        Bb
        it's always been there, ...

Chorus:
        Bb   C         F
        love hurts...
        Bb  C               F
        not yours, it's ...
        Bb     C       F
        love's only ...
        am       Bb          C    F               Bb
        turn and swear, it's ...
                    C           Bb     C   F
        'cause it's ...

30.FEELS SO GOOD

intro
----------------------------------------------------------------------------|
-----------1--------------------------------------------1-----6----5--------|
---2-------2-------------4-----2-----------2---------2--2-----5----5--------|
---3-------3-------------5--5--3-----------3-------3----3-----7----5--------|
----------------------------7-----------------------------------------------|
----------------------------------------------------------------------------|


----------------------------------------------------------------------------|
----3-----3------3-----------------------1------------1---------------------|
----5-----4------5----4----2---------2---2---------2-----4--------2---------|
----5-----5------5------5--3------3------3------3--------5----5---3---------|
--------------------------------------------------------------7-------------|
----------------------------------------------------------------------------|


-----------------------3----------------------------------------------------|
------------------1----3-----5--------3---3-----3---------------------------|
---2----------2---2----4-----5------------4-----5----4----------------------|
---3-------3------3----------5------------5-----5-------5-------------------|
----------------------------------------------------------------------------|
----------------------------------------------------------------------------|

---------------------------------------------------|
----------------1------------1---------------------|
--2---------2---2---------2-----4--------2---------|
--3------3------3------3--------5----5---3---------|
-------------------------------------7-------------|
---------------------------------------------------|


-----------------------3----------------------------------|
------------------1----3-----5--------3---3-----3---------|
---2----------2---2----4-----5------------4-----5----4----|
---3-------3------3----------5------------5-----5-------5-|
----------------------------------------------------------|
----------------------------------------------------------|

---------------------------------------------------|
----------------1------------1---------------------|
--2---------2---2---------2-----4--------2---------|
--3------3------3------3--------5----5---3---------|
-------------------------------------7-------------|
---------------------------------------------------|


-----------------------3----------------------------------|
------------------1----3-----5--------3---3-----3---------|
---2----------2---2----4-----5------------4-----5----4----|
---3-------3------3----------5------------5-----5-------5-|
----------------------------------------------------------|
----------------------------------------------------------|

-----------------------------------------------------------------------------|
-----------------------------------------------------------------------------|
--9----7----5----4-------------4-----------9----7----5----2---------2--------|
--10---9----7----5--------5-------5--------10---9----7----5-----4-------4----|
-----------------------7-------------7--------------------5---------5------5-|
-----------------------------------------------------------------------------|

----------------------------------------------------------------------------|
----------------------------------------------------------------------------|
--9----7----5----4-------------4----------2------4------5----2-----4--------|
--10---9----7----5--------5-------5-------3------5------7----3-----5--------|
-----------------------7-------------7----3------5------7----3-----5--------|
----------------------------------------------------------------------------|

----------3---3-------------------------------------------------------------|
----------6---6-----5--------------3----------------------------------------|
------5-------5--------5-----------5----4-----------------------------------|
---5----------------------5----5------------7---5---------------------------|
----------------------------------------------------------------------------|
----------------------------------------------------------------------------|

31.RIGHT NOW

Here is the intro.  When applied to piano, it sounds just like the CD:

e--------5-----8-----10-----8---5----|   Play this over and over again and
B--8---------------------------------|   VERY fast...
G----7-----7-----7------7-----7---7--|
D------5-----5-----5------5----------|
A------------------------------------|
E------------------------------------|

Then the cymbals kick in.  I don't know the exact name of some of the chords with
additions, so I just put the root chord above each measure.

 a                            G                           F

e--5-5---5---5---5---5------|---------------------------|---------------------------|
B--7-7---8---8---7---7---5--|--5-5---6---6---5---5------|----------------6---6------|
C--7-7---7---7---7---7---5--|--5-5---5---5---5---5---7--|--7-7---7---7---7----7-----|
D--7-7---7---7---7---7---5--|--5-5---5---5---5---5---8--|--8-8---8---8---7-----7----|
A--5-5---5---5---5---5------|--7-7---7---7---7---7---8--|--8-8---8---8---5----------|
E--5-5---5---5---5---5------|--8-8---8---8---8---8---6--|--6-6---6---6--------------|

am

e---------------------------|
B--6---5--------------------|  With a little improvising, it covers most of the
C--7---5--------------------|  song.
D--7---5--------------------|
A--5---7--------------------|
E------8--------------------|

32.EVERYBODY WANTS SOME

Don't Know

33.DANCE THE NIGHT AWAY

INTRO/CHORUS
-----------------------------------------------------------|
----9---9---10--9---7---5---9---9---9---10--9---7----------|
----9---9---9---9---8---6---9---9---9---9---9---8----------|
----9---9---9---9---9---7---9---9---9---9---9---9----------|
----7---7---7---7-----------7---7---7---7---7--------------|
-7---------------------------------------------------------|


---------------------------------------0-------------------|
-------------4---4-5-4---------2---4----4------------------|
----4---6----4---------4---4---2---4-----4-----------------|
----4---6----4-------------4---2---4------4----------------|
----2---4------------------2-------------------------------|
-----------------------------------------------------------|

---------------------------------0-------------------------|
-------------4---4-5-4------------4------------------------|
---4---6-----4---------4---4-4-----4-----------------------|
---4---6-----4-------------4-4------4----------------------|
---2---4-------------------2-2----------7--(CHORUS)--------|
-----------------------------------------------------------|

SOLO: Tap the Bar Chords with your strumming hand on the top of the neck, at about the 21st fret

E E E E B B a
E E E E a a B
E E E E B B a
E E E E a a B   PICK SLIDE

This took me all day to do, so be generous!
Comments