Van Halen - Ain't Talkin' 'bout Love Chords & Tabs

 

Ain't Talkin' 'bout Love Chords & Tabs

Van Halen Chords & Tabs

Version: 6 Type: Tab 0 ratings
1 star 2 stars 3 stars 4 stars 5 stars
comments

Ain't Talkin' 'bout Love Tab

   
Band- Van Halen
Song- Aint Talkin Bout Love

Gtr I (E A D G B E) - 'Eddie Van Halen brown sound dist 1/4 step flat'
Gtr II (E A D G B E) - 'Eddie Van Halen - Coral Electric Sitar w/dist 1/4 step flat'

For fills see end of score

Intro
    Q=138
   4/4
    Gtr I w/flanger & delay
    PM--------------------| ~~~~~~
    E E E E E E E E   E E E E +Q   E E  4x
||----------0-1-----|-3-----------------||
||o-----1-------1---|---3--------------o||
||--------2-------2-|-------------------||
||----2-------------|-------------------||
||o-0---------------|-------3-(3)--2h3-o||
||------------------|-----3-------------||


    PM  PM                  PM~~~~~~
  E S S E E S S E Q    +Q   E E +Q   E E
|--------------------|-------------------|
|-1---1---1---1---0--|-(0)---------------|
|-2---2---2---2---0--|-(0)---------------|
|-2---2---0---2---0--|-(0)---------------|
|-0-0---0-0-0--------|--------3-(3)--2h3-|
|---------------0-3--|-(3)--0------------|


                              \0.5/    \0.5/    \1/
    PM  PM
  E S S E E S S E Q    +E  E +E     E +E     E +E  E
|--------------------|-------------------------------|
|-1---1---1---1---0--|-(0)-1-(1)s===3-(3)s===5-(5)s8-|
|-2---2---2---2---0--|-(0)---------------------------|
|-2---2---0---2---0--|-(0)---------------------------|
|-0-0---0-0-0--------|-------------------------------|
|---------------0-3--|-(3)---------------------------|


    PM  PM                  PM~~~~~~
  E S S E E S S E Q    +Q   E E +Q   E E
|--------------------|-------------------|
|-1---1---1---1---0--|-(0)---------------|
|-2---2---2---2---0--|-(0)---------------|
|-2---2---0---2---0--|-(0)---------------|
|-0-0---0-0-0--------|--------3-(3)--2h3-|
|---------------0-3--|-(3)--0------------|


                                      \1/  \1/
    PM  PM
  E S S E E S S E Q    +E  a    +Q   +E   +Q    +Q
|--------------------|---------------------------------|
|-1---1---1---1---0--|-(0)-----------------------------|
|-2---2---2---2---0--|-(0)-7b9==(7)--(7)--(7)---(7)r\--|
|-2---2---0---2---0--|-(0)-----------------------------|
|-0-0---0-0-0--------|---------------------------------|
|---------------0-3--|-(3)-----------------------------|


   Verse  1 & 2
    PM--------|           PM~~~~~~
    E E E E E E Q    +Q   E E +Q   E E
||----------1---3--|-(3)----------------|
||o-----1-------3--|-(3)----------------|
||--------2---2----|--------------------|
||----2------------|--------------------|
||o-0--------------|--------3-(3)--2h3--|
||-----------------|------3-------------|


  PM--------|           PM~~~~~~       PM--------|           PM~~~~~~
  E E E E E E Q    +Q   E E +Q   E E   E E E E E E Q    +Q   E E +Q   E E
|---------1---3--|-(3)---------------|---------1---3--|-(3)---------------|
|-----1-------3--|-(3)---------------|-----1-------3--|-(3)---------------|
|-------2---2----|-------------------|-------2---2----|-------------------|
|---2------------|-------------------|---2------------|-------------------|
|-0--------------|--------3-(3)--2h3-|-0--------------|--------3-(3)--2h3-|
|----------------|------3------------|----------------|------3------------|
                 |-play Fill 1 on repeat

                                      Chorus
  PM------|                              PM  PM                  PM~~~~~~
  E E E E q  Q    +Q   Q   Q    Q      E S S E E S S E Q    +Q   E E +Q   E E
|---------1--3--|-(3)---------------||--------------------|-------------------|
|-----1------3--|-(3)---------------||-1---1---1---1---0--|-(0)---------------|
|-------2-------|------x\--x\-------||-2---2---2---2---0--|-(0)---------------|
|---2-----------|------x\--x\-------||-2---2---0---2---0--|-(0)---------------|
|-0-------------|------x\--x\-------||-0-0---0-0-0--------|--------3-(3)--2h3-|
|---------------|--------------12\--||---------------0-3--|-(3)--0------------|
                |-play Fill 2 on repeat

    PM  PM                  PM~~~~~~
  E S S E E S S E Q    +Q   E E +Q   E E
|--------------------|-------------------|
|-1---1---1---1---0--|-(0)---------------|
|-2---2---2---2---0--|-(0)---------------|
|-2---2---0---2---0--|-(0)---------------|
|-0-0---0-0-0--------|--------3-(3)--2h3-|
|---------------0-3--|-(3)--0------------|


    PM  PM                  PM~~~~~~
  E S S E E S S E Q    +Q   E E +Q   E E
|--------------------|-------------------|
|-1---1---1---1---0--|-(0)---------------|
|-2---2---2---2---0--|-(0)---------------|
|-2---2---0---2---0--|-(0)---------------|
|-0-0---0-0-0--------|--------3-(3)--2h3-|
|---------------0-3--|-(3)--0------------|
                     |-play Fill 3 on repeat

  1.
                            PM~~~~~~
  E S S E E S S E Q    +Q   E E +Q   E E
|--------------------|--------------------||
|-1---1---1---1---0--|-(0)---------------o||
|-2---2---2---2---0--|-(0)----------------||
|-2---2---0---2---0--|-(0)----------------||
|-0-0---0-0-0--------|--------3-(3)--2h3-o||
|---------------0-3--|-(3)--0-------------||


  2.
    PM  PM
  E S S E E S S E Q    +Q.   Q.   E E
|--------------------|----------------||
|-1---1---1---1---0--|-(0)--------5-8-||
|-2---2---2---2---0--|-(0)------------||
|-2---2---0---2---0--|-(0)---0--------||
|-0-0---0-0-0--------|----------------||
|---------------0-3--|-(3)------------||


 Guitar Solo
                                     \1/   \1/   \1/
  a  Q.    E  +E   E  a  Q     +E   +E    +E    +E    +E   +E   E E
|----0-----0--(0)--0-----0--|--(0)--(0)---(0)---(0)---(0)--(0)------|
|-8s10----10-(10)-10-10s12--|-(12)-(12)--(12)--(12)--(12)-(12)\-5-8-|
|---------------------------|---------------------------------------|
|---------------------------|---------------------------------------|
|---------------------------|---------------------------------------|
|---------------------------|---------------------------------------|



  a  Q.    a  S  S   S   S  S  S  a  Q    E E Q   E    E E E
|----0--------0--0-------------------0--|-0-0----------0-----|
|-8s10----10s12-12--12--12-13-13-13s12s=|=8-8s5s=13----0-5-8-|
|---------------------------------------|--------------------|
|---------------------------------------|--------------------|
|---------------------------------------|--------------------|
|---------------------------------------|--------------------|
|
|Gtr II
| a  Q.       E     +E      E        Q    E E Q  +E  a E E E
|----0--------0-----(0)--------------0--|---0----------------|
|-8s10-------12----(12)----13-------12s=|=8-8s5--(5)-6s5-5-8-|
|---------------------------------------|--------------------|
|---------------------------------------|--------------------|
|---------------------------------------|--------------------|
|---------------------------------------|--------------------|


  a  Q.    E  +E   E  a  Q     +E   E  E  E  E   E       S   S  S  S
|----0-----0--(0)--0--------|----------------------------------------|
|-8s10----12-(12)-13-13s15--|-(15)-13-15s17-17h=20------17h=20p17----|
|------------------------0--|--(0)--------------------------------20-|
|---------------------------|----------------------------------------|
|---------------------------|----------------------------------------|
|---------------------------|----------------------------------------|
|
| a  Q.    E  +E   E  a  Q     +E   E  E  E  Q     a     Q
|----0-----0--(0)--0--------|----------------------------------------|
|-8s10----12-(12)-13-13s15--|-(15)-13-15s17-17\----------5-----------|
|------------------------0--|--(0)-----------------7b9==(7)----------|
|---------------------------|----------------------------------------|
|---------------------------|----------------------------------------|
|---------------------------|----------------------------------------|


   S  S  S  S  S  S  S  S  S  S  S  S  S  S     +S     a      +S
|--------------------------------------------------------------------|
|-17h20p17----17h20p17----17h20p17----17-----------------------------|
|----------20----------20----------20----19b21r(19)---17b18==(17)rp==|
|--------------------------------------------------------------------|
|--------------------------------------------------------------------|
|--------------------------------------------------------------------|
|
|  S  S  S  S  e     S  S  S  S  S  S  S  S      S             S
|--------------------------------------------------------------------|
|--------------------------------------------------------------------|
|--7--7-----7--7-----7--7-----7--7--7--7--7r-----7pb8----------7-----|
|--------------------------------------------------------------------|
|--------------------------------------------------------------------|
|--------------------------------------------------------------------|


  \3.5
  Q.                          Q      E      E  E
|-------------------------------------------------||
|-------------------------------------------------||
|-0-----------------------------------------------||
|-------------------------------------------------||
|----------------------------hxs====12\-----------||
|------------------------------------------h0s13\-||
|
|                   |--3---|
| S    S S S  a    +S  +S  S  S S e  Q         E
|-------------------------------------------------||
|-------------------------------------------------||
|-7----7-7-7r-7b8==(7)r(7)p5----5----5b5.5--------||
|-----------------------------7---7------------7--||
|-------------------------------------------------||
|-------------------------------------------------||


 Chorus
                            PM~~~~~~
  E S S E E S S E Q    +Q   E E +Q   E E   E S S E E S S E Q
|--------------------|-------------------|----------------------|
|-1---1---1---1---0--|-(0)---------------|-1---1---1---1---0----|
|-2---2---2---2---0--|-(0)---------------|-2---2---2---2---0----|
|-2---2---0---2---0--|-(0)---------------|-2---2---0---2---0----|
|-0-0---0-0-0--------|--------3-(3)--2h3-|-0-0---0-0-0----------|
|---------------0-3--|-(3)--0------------|---------------0-3----|



       PM~~~~~~
  +Q   E E +Q   E E   E S S E E S S E Q
|-------------------|--------------------|
|-(0)---------------|-1---1---1---1---0--|
|-(0)---------------|-2---2---2---2---0--|
|-(0)---------------|-2---2---0---2---0--|
|--------3-(3)--2h3-|-0-0---0-0-0--------|
|-(3)--0------------|---------------0-3--|


       PM~~~~~~
  +Q   E E +Q   E E   E S S E E S S E Q
|-------------------|--------------------|
|-(0)---------------|-1---1---1---1---0--|
|-(0)---------------|-2---2---2---2---0--|
|-(0)---------------|-2---2---0---2---0--|
|--------3-(3)--2h3-|-0-0---0-0-0--------|
|-(3)--0------------|---------------0-3--|


               Verse 3
flanger off
   >
                PM|                                  PM|
  +W            E E E E E E E E   E E E E +Q   E E   E E E E E E E E
|------------||---------1---3---|------------------|---------1---3---|
|-(0)--------||-----1---------3-|------------------|-----1---------3-|
|-(0)--------||-------2---2-----|-0----------------|-------2---2-----|
|-(0)--------||---2-------------|---0--------------|---2-------------|
|------------||-0---------------|-------3-(3)--2h3-|-0---------------|
|-(3)--------||-----------------|-----3------------|-----------------|


  E Q  E +E  E E E   E E E E E E E E   E E E E +Q   E E   E E E E E E E E
|------------------|---------1---3---|------------------|---------1---3---|
|------------------|-----1---------3-|------------------|-----1---------3-|
|-0----------0-----|-------2---2-----|-0----------------|-------2---2-----|
|---0--------------|---2-------------|---0--------------|---2-------------|
|------3-(3)---2h3-|-0---------------|-------3-(3)--2h3-|-0---------------|
|------------------|-----------------|-----3------------|-----------------|

                   |-flanger on
  E E E E +Q   E E   q  q   E   E   Q
|------------------|--------------------|
|------------------|-1--1----------<5>--|
|-0----------------|-2--2------<5>------|
|---0--------------|-2--2--<5>----------|
|-------3-(3)p=2---|-0--0---------------|
|-----3----------3-|--------------------|

[ Tab from: http://www.guitartabs.cc/tabs/v/van_halen/aint_talkin_bout_love_tab_ver_6.html ]
   +Q     E    E    +E     E    E   E    q  q   E   E   Q
|--------------------------------------|--------------------|
|-(<5>)------<12>-(<12>)-----------<5>-|-1--1--<5>----------|
|--------<7>-------------------<5>-----|-2--2------<5>------|
|------------------------(<5>)---------|-2--2----------<5>--|
|--------------------------------------|-0--0---------------|
|--------------------------------------|--------------------|


   +E    E   E    E    +E     E    E  E   q  q   E   E   Q
|---------------------------------------|--------------------|
|-----------<7>-------------<12>--------|-1--1----------<5>--|
|---------------<12>-(<12>)------<12>-0-|-2--2------<5>------|
|-(<5>)-<7>-----------------------------|-2--2--<5>----------|
|---------------------------------------|-0--0---------------|
|---------------------------------------|--------------------|


   +Q     E   E   E    E    E   E    q  q   E   E   Q
|----------------------------------|--------------------|
|-(<5>)--<5>---------<12>----------|-1--1----------<5>--|
|------------<5>----------<12>-<7>-|-2--2------<5>------|
|----------------<5>---------------|-2--2--<5>----------|
|----------------------------------|-0--0---------------|
|----------------------------------|--------------------|


                           Chorus
   +Q.    E  E   E   Q      E E E E E E Q
|------------------------||----------------|
|-(<5>)---------<5>------||-1-----1-----0--|
|---------0-<5>----------||-2-2---2-----0--|
|------------------------||-2-2---2-----0--|
|------------------------||-0-0-0----------|
|-------------------14\--||---------0-0-3--|


         ~~~~~~
  +Q   E E +Q   E E   E S S E E S S E Q
|-------------------|--------------------|
|-(0)---------------|-1---1---1---1---0--|
|-(0)---------------|-2---2---2---2---0--|
|-(0)---------------|-2---2---0---2---0--|
|--------3-(3)--2h3-|-0-0---0-0-0--------|
|-(3)--0------------|---------------0-3--|


            \1/   \1/   \1/
  +E  S S E E   E E   E E     E S S E E S S E Q
|---------------------------|--------------------|
|-(0)-1-1-1s3---3s5---5s8\--|-1---1---1---1---0--|
|-(0)-----------------------|-2---2---2---2---0--|
|-(0)-----------------------|-2---2---0---2---0--|
|---------------------------|-0-0---0-0-0--------|
|-(3)-----------------------|---------------0-3--|


       PM~~~~~~               PM|
  +Q   E E +Q   E E   E E E E E E Q
|-------------------|-----------------|
|-(0)---------------|-------------0---|
|-(0)---------------|-2-----2-----0---|
|-(0)---------------|-2-0h2-------0---|
|--------3-(3)--2h3-|-0---------------|
|-(3)--0------------|---------0-0-3---|


       PM~~~~~~
  +Q   E E +Q   E E   E S S E E S S E Q
|-------------------|--------------------|
|-(0)---------------|-1---1---1---1---0--|
|-(0)---------------|-2---2---2---2---0--|
|-(0)---------------|-2---2---0---2---0--|
|--------3-(3)--2h3-|-0-0---0-0-0--------|
|-(3)--0------------|---------------0-3--|


       PM~~~~~~
  +Q   E E +Q   E E   E S S E E S S E Q
|-------------------|--------------------|
|-(0)---------------|-1---1---1---1---0--|
|-(0)---------------|-2---2---2---2---0--|
|-(0)---------------|-2---2---0---2---0--|
|--------3-(3)--2h3-|-0-0---0-0-0--------|
|-(3)--0------------|---------------0-3--|


  +E   a       E   S  S  S  S   a       E    S  S  a       E   E
|-------------17--17-17-17-17----------17---17-17---------17---x\-|
|-(0)-20b22==(20)-20-20-20-20r-20b22==(20)r-------20b22==(20)r-x\-|
|-(0)----------------------------------------------------------x\-|
|-(0)-------------------------------------------------------------|
|-----------------------------------------------------------------|
|-(3)-------------------------------------------------------------|


    PM|   PM|           PM~~~~~~         PM|   PM|
  E E E E E E Q    +Q   E E +Q   E E   E E E E E E Q
|----------------|-------------------|----------------|
|-1-----1-----0--|-(0)---------------|-1-----1-----0--|
|-2-----2-----0--|-(0)---------------|-2-----2-----0--|
|-2-----2-----0--|-(0)---------------|-2-----2-----0--|
|-0-0-0-0-0------|--------3-(3)--2h3-|-0-0-0-0-0------|
|-----------0-3--|-(3)--0------------|-----------0-3--|


                      Guitar Solo
                Gtrs I, II
      PM------|
  +E  E E E E E E E    a  Q.    E  +E  E  a  Q
|-------------------||-0-(0)----0--(0)-5-----0--|
|-(0)-----------5-8-||-8s10----12-(12)-5-10s12--|
|-(0)---------------||--------------------------|
|-(0)---------------||--------------------------|
|-------------------||--------------------------|
|-(3)-3-3-3-3-3-----||--------------------------|


         \0.5/   \1/   \1/
   +E   +E      +E    +E    +E   +E   E E   a  Q.    E  +E   E  Q
|--(0)--(0)-----(0)---(0)---(0)-----------|----0-----0--(0)-----0---|
|-(12)-(12)----(12)--(12)--(12)-(12)\-5-8-|-8s10----12-(12)-13-12---|
|-----------------------------------------|-------------------------|
|-----------------------------------------|-------------------------|
|-----------------------------------------|-------------------------|
|-----------------------------------------|-------------------------|


  Gtr I
   +E   E E S S E S S E E   a  Q    E  E  +E   E  a  E  S  S
|--(0)--0-----0-0---0-----|----0----0--0--(0)--0-----0-------|
|-(12)\-8s5-5---5-5---5-8-|-8s10---10-12-(12)-13-13s15-15-15-|
|-------------------------|----------------------------------|
|-------------------------|----------------------------------|
|-------------------------|----------------------------------|
|-------------------------|----------------------------------|
|
| Gtr II
|  +E   E E S S E S S E E   a  Q.      E  +E   E  a  Q
|--(0)--0-----0-0---0-----|----0-------0--(0)--------0-------|
|-(12)\-8s5-5---5-5---5-8-|-8s10------12-(12)-13-13s15-------|
|-------------------------|----------------------------------|
|-------------------------|----------------------------------|
|-------------------------|----------------------------------|
|-------------------------|----------------------------------|


    T   T  E.     E  E  E   E       S    S  E
|-----------------0-----0---------------------|
|--15--15p13-----15s17-17s=20------17h==20p17-|
|---------------------------------------------|
|---------------------------------------------|
|---------------------------------------------|
|---------------------------------------------|
|
|  +E          E  E  E  Q     a     Q
|---------------------------------------------|
|-(15)--------13-15s17-17\----------5---------|
|-----------------------------7b9==(7)r-------|
|---------------------------------------------|
|---------------------------------------------|
|---------------------------------------------|


        S   S  S  S  S  S  S  S  E   E  E E
|--------------------------------0--------0-|
|------17h=20p17----17h20p17--------------0-|
|----------------20----------20-------------|
|-------------------------------------------|
|-------------------------------------------|
|-----------------------------------/5s20---|
|
| a     H                       +H
|-------------------------------------------|
|-------------------------------------------|
|-------5-----------------------(5)---------|
|-7b9==(7)----------------------(7)---------|
|-------------------------------------------|
|-------------------------------------------|


                                   Out-Chorus
               \5
                                      PM|   PM|           PM~~~~~~
   a      +S   E. +H         Q      E E E E E E Q    +Q   E E +E  +E  E E
|--------------------------------||----------------|----------------------|
|--------------------------------||-1-----1-----0--|-(0)------------------|
|--------------------------------||-2-----2-----0--|-(0)------------------|
|--------------------------------||-2-----2-----0--|-(0)------------------|
|--------------------------------||-0-0-0-0-0------|--------3-(3)-(3)-2h3-|
|-20b22==(20)rp0--(0)-------13\--||-----------0-3--|-(3)--0---------------|
|
|         +H           +Q    Q      W                 W
|--------------------------------||----------------|----------------------|
|--------------------------------||----------------|----------------------|
|---------(5)----------(5)-------||----------------|----------------------|
|---------(7)r=========(7)-------||----------------|----------------------|
|--------------------------------||----------------|----------------------|
|--------------------------------||----------------|----------------------|


    PM  PM                  PM~~~~~~         PM  PM
  E S S E E S S E Q    +Q   E E +Q   E E   E S S E E S S E Q
|--------------------|-------------------|--------------------|
|-1---1---1---1---0--|-(0)---------------|-1---1---1---1---0--|
|-2---2---2---2---0--|-(0)---------------|-2---2---2---2---0--|
|-2---2---0---2---0--|-(0)---------------|-2---2---0---2---0--|
|-0-0---0-0-0--------|--------3-(3)--2h3-|-0-0---0-0-0--------|
|---------------0-3--|-(3)--0------------|---------------0-3--|


  +Q   a     Q     a       Q     a       Q
|-----------------------------------------------|
|-(0)--------5-------------8------------10------|
|-(0)--7b9==(7)r--10b12==(10)r--12b14==(12)r----|
|-(0)-------------------------------------------|
|-----------------------------------------------|
|-(3)-------------------------------------------|


    PM  PM                  PM~~~~~~
  E S S E E S S E Q    +Q   E E +Q   E E
|--------------------|-------------------|
|-1---1---1---1---0--|-(0)---------------|
|-2---2---2---2---0--|-(0)---------------|
|-2---2---0---2---0--|-(0)---------------|
|-0-0---0-0-0--------|--------3-(3)--2h3-|
|---------------0-3--|-(3)--0------------|


      PM  PM
    E S S E E S S E Q    +E  E E E E E E E   4x
||---------------------|---------------------||
||o-1---1---1---1---0--|-(0)----------------o||
||--2---2---2---2---0--|-(0)-----------------||
||--2---2---0---2---0--|-(0)---5-5-5-5-5-5---||
||o-0-0---0-0-0--------|-------3-3-3-3-3-3\-o||
||----------------0-3--|-(3)-0---------------||


  Q  E E +E  E Q    +Q    S  E. E E E E
|-----------------|---------------------|
|--------------5--|-(5)-----------------|
|-2----4-(4)---5--|-(5)-----------------|
|-2----4-(4)---5--|-(5)-----------------|
|-0--0-2-(2)---3--|-(3)--10---------3-2-|
|------------0----|------10-10\-0-3-----|


                  \6___________/
  Q  E E +E  E  S E.    +H     Q.   +E
|---------------------|-----------------|
|---------------------|-----------------|
|-2----4-(4)----------|-----------------|
|-2----4-(4)----------|-----------------|
|-0--0-2-(2)----------|-----------------|
|------------5s20p0---|-(0)----0----(0)-|


  Q  E E +E  E Q    +Q     E  E  E E E E
|-0---------------|----------------------|
|-1------------5--|-(5)------------------|
|-2----4-(4)---5--|-(5)------------------|
|-2----4-(4)---5--|-(5)------------------|
|-0--0-2-(2)---3--|-(3)--/10---------3-2-|
|------------0----|----------10\-0-3-----|


                               \6___/
             PM       ~~~
  Q  E E +E  E  Q    +H      S E.  +E  +E    Q   Q  H
|--------------^3--:-(3)-------------------:-7\----------*|
|--------------^3--:-(3)-------------------:-7\----------*|
|-2----4-(4)---^0--:-(0)-------------------:-7\----------*|
|-2----4-(4)---^2--:-(2)-------------------:-6\----------*|
|-0--0-2-(2)-------:-----------------------:-7\----------*|
|------------0-----:--------/7p0---(0)-(0)-:-------------*|


 Fill 1                 Fill 2
       PM ~~~~~~~
   Q   E  E  +Q   E E     Q    Q  E.S   Q
|-(3)-----------------||-(3)----------------||
|-(3)-----------------||-(3)----------------||
|---------------------||------18s=xsx\------||
|---------------------||------19s=xsx\------||
|--------[3]-(3)--2h3-||------20s=xsx\------||
|------3--------------||---------------13\--||


 Fill 3
                 \1/  \1/\1/  \1/
   E  a    +Q   +E   +E  E   +E   S S
|-------------------------------------||
|-(0)-6b8==(6)--(6)--(6)s8---(8)r-----||
|-(0)---------------------------------||
|-(0)---------------------------------||
|-------------------------------------||
|-(3)-----------------------------3p0-||
Comments