Van Halen - Ain't Talkin' 'bout Love Chords & Tabs

 

Ain't Talkin' 'bout Love Chords & Tabs

Van Halen Chords & Tabs

Version: 4 Type: Tab 0 ratings
1 star 2 stars 3 stars 4 stars 5 stars
comments

Ain't Talkin' 'bout Love Tab

  PM_______
------------0---1--------3------------
-------1-----------1-------3----------
----------2-----------2---------------
-----2--------------------------------
--0-----------------------------3--2H3
------------------------------3-------
        Repeat four times

-------------------------------------------------------------------------
--1--X--1--X--3--------------1--X--1--X--3---------------1--1/3--3/5--5/8
--2--X--2--X--0--------------2--X--2--X--0-------------------------------
--2--X--2--X--0--------------2--X--2--X--0-------------------------------
--------------------3---2H3---------------------3---2H3------------------
-----------------3---------------------------3---------------------------                
-----------------------------------------------
--1-X-1-X-3------------1-X-1-X-3---------------
--2-X-2-X-0------------2-X-2-X-0-------------7~
--2-X-2-X-0------------2-X-2-X-0---------------
----------------3--2H3---------------3--2H3----
-------------3--------------------3------------
        
SOLO
[ Tab from: http://www.guitartabs.cc/tabs/v/van_halen/aint_talkin_bout_love_tab_ver_4.html ]
----------------------------------------------------------------------
--5-8--8/10--10-10-10/12--5-8--8/10--10--10-10/12-12/13-10/12-12\8-8\5
----------------------------------------------------------------------
----------------------------------------------------------------------
----------------------------------------------------------------------
----------------------------------------------------------------------

-------------------------------------------------------------------------
--5-8-8/10--10--10-10/12--10/15--15/17--17/20--17H20P17-17H20P17-17H20P17
-------------------------------------------------------------------------
-------------------------------------------------------------------------
-------------------------------------------------------------------------
-------------------------------------------------------------------------

-------------------------------------------------------------------------
--17H20P17---------------------------------------------------------------
-------------------------------------------------------------------------
-------------------------------------------------------------------------
-------------------------------------------------------------------------
-------------------------------------------------------------------------
Comments