Van Halen - Ain't Talkin' 'bout Love Chords & Tabs

 

Ain't Talkin' 'bout Love Chords & Tabs

Van Halen Chords & Tabs

Version: 1 Type: Tab 6 ratings
1 star 2 stars 3 stars 4 stars 5 stars
comments

Ain't Talkin' 'bout Love Tab

This is the tab to Ain't talkin' 'bout love. It misses some parts of the song, but icludes the most.
Hope you like it! Have fun!

(P)=Pull off
(V)=Vibration

Tune 1/2 step down.

Intro

E----------0-1----3-----------
B------1------1----3---------- 
G--------2------2-------------
D----2------------------------
A-0--------------------3--2-3-
E--------------------3--------

Repeat 4 times

E-0----0---------------------
B-1----1----0----------------
G-2----2----0----------------
D-2----2----0----------------
A-0----0---------3--2-3------
E--------------0-------------

E-0----0----------------------
B-1----1----0--1--3-3--5-5--8-
G-2----2----0-----------------
D-2----2----0-----------------
A-0----0----------------------
E-----------------------------


E-0----0---------------------
B-1----1----0----------------
G-2----2----0----------------
D-2----2----0----------------
A-0----0---------3--2-3------
E--------------0-------------

Repeat 1 time

Verse 1

E----------1---3--------------
B------1----1--3--------------
G--------2-----4--------------
D----2------------------------
A-0-------------------3--2-3--
E-------------------3---------

Repeat 4 times

Chorus 1
[ Tab from: http://www.guitartabs.cc/tabs/v/van_halen/aint_talkin_bout_love_tab.html ]
E-0----0---------------------
B-1----1----0----------------
G-2----2----0----------------
D-2----2----0----------------
A-0----0---------3--2-3------
E--------------0-------------

Repeat 4 times

Verse 2 

Play just like Verse 1

Chorus 2

Play just like Chorus 1

Solo 1

E-0--0--0----0---0--------
B-5--8--10---10--12-------

E-0--0--0----0--0--0---0--0---
B-5--8--10---12-13-12--8--5-5-

E-0--0--0---0------------------------------------------------------------------------------------
B-5--8--10--12-13-15-13-15-13-15-17-17-17-17-20-17-20-17-20-17-20-17-20-17-20-17-17--------------
G----------------------------------------------------------------------------------17-19-(P)-(V)-

Chorus

(The "i've been to the edge, and there i stood and looked down" part that i don't know)

Chorusx2

Solo 2

Play it same way as Solo 1

Chorus x2

Outro

E-2-------
B-2-------
G-2-------
D-2--4--5-
A-0--2--3-
E---------

E-2-------
B-2-------
G-2-------
D-2--4----
A-0--2--2-
E-------0-

E-2-------
B-2-------
G-2-------
D-2--4--5-
A-0--2--3-
E---------

E-2------7-7-
B-2------8-8-
G-2------7-7-
D-2--4---9-9-
A-0--2---7-7-
E------------

That's it! Hope you have a fun time learning it!
Comments