Value Pac - Prom Queen Chords & Tabs

 

Prom Queen Chords & Tabs

Value Pac Chords & Tabs

Version: 2 Type: Bass Tab 0 ratings
1 star 2 stars 3 stars 4 stars 5 stars
comments

Prom Queen Bass Tab

   
"Prom Queen"
 Value Pac
 Jalapeno
 Words and Music: Value Pac
 (c) 1997 Spinning Audio Vortex Publishing

 --Verse--
G-|-------------------------------|
D-|-------------------------------|
A-|---------4---4---------4---4-4-|
E-|-4---4-4-------4---4-4---------|

G-|-------------------------------|
D-|-------------------------------|
A-|---------4---4---------6---6-6-|
E-|-4---4-4-------4---4-4---------|

 --Break between Verses--
G-|-------------------------------|
D-|-------------------------------|
A-|---------4---4---------6---6-6-|
E-|-4---4-4-------4---4-4---------|

 Play Verse

 --Chorus--                        
    C#     D#       G#     C#      2x          
G-|---------------------------------|
D-|*-------------------------------*|
A-|*4-3----6-64-------3-6-34-43----*|
E-|-----6-3-----8-6-4-----------6-3-|
    C#     D#       G#     C#
G-|---------------------------------|
D-|-------------5-6-6---------------|
A-|-4-3----6-68-------6----4-43-----|
E-|-----6-3-------------8-3-----6-3-|
    C#     G#       D#
G-|---------------------------------|
D-|---------------------------------|
A-|-4-4-4-4---------6-6-6-66-66-6-6-|
E-|--------4-44-4-4-----------------|

 Play Verse

 Play Chorus
[ Tab from: http://www.guitartabs.cc/tabs/v/value_pac/prom_queen_btab_ver_2.html ]
 --Bridge--
G-|--------------------------------|
D-|--------------------------------|
A-|-4-4-44-4-4------4--4-----------|
E-|------------4-44------4---1-1-1-|

G-|--------------------------------|
D-|--------------------------------|
A-|-4-4-44-4-4------4--4-----8-8-8-|
E-|------------4-44------4---------|

G-|--------------------------------|
D-|--------------------------------|
A-|-4-4-44-4-4------8-8-88-8-8-8-8-|
E-|------------4-44----------------|

G-|--------------------------------|
D-|-----4-4-3-3--------------------|
A-|-4-4---------4-4--6-6-6-6-6-6-6-|
E-|--------------------------------|

 --Bridge Two--
G-|--------------------------------|
D-|--------------------------------|
A-|---------4---4------------------|
E-|-4---4-4-------4----------------|

G-|--------------------------------|
D-|--------------------------------|
A-|---------4---4----4h6 6-6-6-4---|
E-|-4---4-4-------4--------------6-|

G-|--------------------------------|
D-|--------------------------------|
A-|---------4---4------------------|
E-|-4---4-4-------4----------------|

G-|--------------------------------|
D-|--------------------------------|
A-|-4---4-4-------6---6-6---6-6--6-|
E-|---------4---4------------------|

 Play Verse

 Play Chorus

 --Outro--
G-|--------------------|
D-|--------------------|
A-|---------4---4-6----|
E-|-4---4-4------------|
Comments