Value Pac - Inch High Chords & Tabs

 

Inch High Chords & Tabs

Value Pac Chords & Tabs

Version: 2 Type: Bass Tab 0 ratings
1 star 2 stars 3 stars 4 stars 5 stars
comments

Inch High Bass Tab

   
"Inch High"
 Value Pac
 Jalapeno
 Words and Music: Value Pac
 (c) 1997 Spinning Audio Vortex Publishing
 Tabbed by: Johnny Angel (StarFlyr99@aol.com)

 This song's pretty much all the same all the 
 way through, but there are a couple little changes
 in the parts, so I labeled everything in a separate
 part, even if it only changes one note. 

 --Verse--
G-|---------------------------------|
D-|---------------------------------|
A-|-4-4-4-4-4-4-4-4-----------------|
E-|-----------------1-1-1-1-1-1-1-1-|

G-|---------------------------------|
D-|---------------------------------|
A-|---------------------------------|
E-|-2-2-2-2-2-2-2-2-4-4-4-4-2-2-4-4-|

 --Chorus--
G-|---------------------------------|
D-|---------------------------------|
A-|-4-4-4-4-4-4-4-4-----------------|
E-|-----------------1-1-1-1-1-1-1-1-|
[ Tab from: http://www.guitartabs.cc/tabs/v/value_pac/inch_high_btab_ver_2.html ]
G-|---------------------------------|
D-|---------------------------------|
A-|---------------------------------|
E-|-2-2-2-2-2-2-2-2-4-4-4-4-4-4-4-4-|

 Play Verse
 
 Play Chorus 

 --Bridge--
G-|---------------------------------|
D-|---------------------------------|
A-|---------8-----------------------|
E-|-6---------------2-2-2-2-2-2-4-4-|
 Second Time End:
E-|-2-2-2-2-2-2-2-2-4-4-4-4-2-2-4-4-|

 Play Verse during the guitar part 

 --Played once right before the 3rd
    Chorus, the lyric is "Soon I'll
    be gone"--
G-|---------------------------------|
D-|---------------------------------|
A-|-4-4-4-4-4-4-4-4-----------------|
E-|-----------------1-1-1-1-1-1-1-1-|

G-|---------------------------------|
D-|---------------------------------|
A-|-----------------4-4-4-4---------|
E-|-2-2-2-2-2-2-2-2---------4-4-4-4-|

 Play Chorus

 Play the Verse during the cool little
 guitar part, then fade then come back in,
 and end.
Comments