Value Pac - Final Request Chords & Tabs

 

Final Request Chords & Tabs

Value Pac Chords & Tabs

Version: 1 Type: Bass Tab 0 ratings
1 star 2 stars 3 stars 4 stars 5 stars
comments

Final Request Bass Tab

Song- Final Request
Artist- Value Pac
(C) 1996 Spinning Audio Vortex Publishing
Tab By- Ian Graper


Bass Intro- Play every note with a pick slightly muted
don't use any hammer ons.
[ Tab from: http://www.guitartabs.cc/tabs/v/value_pac/final_request_btab.html ]
G--------------------------------------------------
D--------5-6-5---8-6-5~~---------------------------
A----6-6-------5---------3-3-3-6-3---3-6---5-8-5---
E----------------------------------4-----6---------


G--------------------------------------------------
D--------5-6-5---8-6-5~~---------------------------
A----6-6-------5---------3-3-3-6-3-----------------
E----------------------------------4---------------

Just play along with the chords and throw in little walks
during the verses like VP always does.

Comments